  0
SECTION
  2
HEADER
  9
$ACADVER
  1
AC1015
  9
$ACADMAINTVER
 70
     6
  9
$DWGCODEPAGE
  3
ANSI_1254
  9
$INSBASE
 10
0.0
 20
0.0
 30
0.0
  9
$EXTMIN
 10
0.0
 20
0.0
 30
0.0
  9
$EXTMAX
 10
279.4
 20
215.9
 30
0.0
  9
$LIMMIN
 10
0.0
 20
0.0
  9
$LIMMAX
 10
279.4
 20
215.9
  9
$ORTHOMODE
 70
     0
  9
$REGENMODE
 70
     1
  9
$FILLMODE
 70
     1
  9
$QTEXTMODE
 70
     0
  9
$MIRRTEXT
 70
     1
  9
$LTSCALE
 40
1.0
  9
$ATTMODE
 70
     1
  9
$TEXTSIZE
 40
3.5
  9
$TRACEWID
 40
1.0
  9
$TEXTSTYLE
  7
Standard
  9
$CLAYER
  8
0
  9
$CELTYPE
  6
ByLayer
  9
$CECOLOR
 62
   256
  9
$CELTSCALE
 40
1.0
  9
$DISPSILH
 70
     0
  9
$DIMSCALE
 40
1.0
  9
$DIMASZ
 40
3.5
  9
$DIMEXO
 40
1.0
  9
$DIMDLI
 40
3.75
  9
$DIMRND
 40
0.0
  9
$DIMDLE
 40
0.0
  9
$DIMEXE
 40
1.0
  9
$DIMTP
 40
0.0
  9
$DIMTM
 40
0.0
  9
$DIMTXT
 40
3.5
  9
$DIMCEN
 40
2.5
  9
$DIMTSZ
 40
0.0
  9
$DIMTOL
 70
     0
  9
$DIMLIM
 70
     0
  9
$DIMTIH
 70
     1
  9
$DIMTOH
 70
     1
  9
$DIMSE1
 70
     0
  9
$DIMSE2
 70
     0
  9
$DIMTAD
 70
     1
  9
$DIMZIN
 70
     0
  9
$DIMBLK
  1

  9
$DIMASO
 70
     1
  9
$DIMSHO
 70
     1
  9
$DIMPOST
  1

  9
$DIMAPOST
  1

  9
$DIMALT
 70
     0
  9
$DIMALTD
 70
     3
  9
$DIMALTF
 40
0.0393700787
  9
$DIMLFAC
 40
1.0
  9
$DIMTOFL
 70
     1
  9
$DIMTVP
 40
0.0
  9
$DIMTIX
 70
     0
  9
$DIMSOXD
 70
     0
  9
$DIMSAH
 70
     0
  9
$DIMBLK1
  1

  9
$DIMBLK2
  1

  9
$DIMSTYLE
  2
ISO-25
  9
$DIMCLRD
 70
     0
  9
$DIMCLRE
 70
     0
  9
$DIMCLRT
 70
     0
  9
$DIMTFAC
 40
1.0
  9
$DIMGAP
 40
1.524
  9
$DIMJUST
 70
     0
  9
$DIMSD1
 70
     0
  9
$DIMSD2
 70
     0
  9
$DIMTOLJ
 70
     0
  9
$DIMTZIN
 70
     0
  9
$DIMALTZ
 70
     0
  9
$DIMALTTZ
 70
     0
  9
$DIMUPT
 70
     0
  9
$DIMDEC
 70
     2
  9
$DIMTDEC
 70
     2
  9
$DIMALTU
 70
     2
  9
$DIMALTTD
 70
     3
  9
$DIMTXSTY
  7
Standard
  9
$DIMAUNIT
 70
     0
  9
$DIMADEC
 70
     2
  9
$DIMALTRND
 40
0.0
  9
$DIMAZIN
 70
     0
  9
$DIMDSEP
 70
    44
  9
$DIMATFIT
 70
     3
  9
$DIMFRAC
 70
     0
  9
$DIMLDRBLK
  1

  9
$DIMLUNIT
 70
     2
  9
$DIMLWD
 70
    -2
  9
$DIMLWE
 70
    -2
  9
$DIMTMOVE
 70
     0
  9
$LUNITS
 70
     2
  9
$LUPREC
 70
     2
  9
$SKETCHINC
 40
1.0
  9
$FILLETRAD
 40
10.0
  9
$AUNITS
 70
     0
  9
$AUPREC
 70
     2
  9
$MENU
  1
.
  9
$ELEVATION
 40
0.0
  9
$PELEVATION
 40
0.0
  9
$THICKNESS
 40
0.0
  9
$LIMCHECK
 70
     0
  9
$CHAMFERA
 40
0.0
  9
$CHAMFERB
 40
0.0
  9
$CHAMFERC
 40
0.0
  9
$CHAMFERD
 40
0.0
  9
$SKPOLY
 70
     0
  9
$TDCREATE
 40
2459741.592522755
  9
$TDUCREATE
 40
2459741.467522755
  9
$TDUPDATE
 40
2459741.592525081
  9
$TDUUPDATE
 40
2459741.467525081
  9
$TDINDWG
 40
0.0000000116
  9
$TDUSRTIMER
 40
0.0000000116
  9
$USRTIMER
 70
     1
  9
$ANGBASE
 50
0.0
  9
$ANGDIR
 70
     0
  9
$PDMODE
 70
     0
  9
$PDSIZE
 40
-1.0
  9
$PLINEWID
 40
0.0
  9
$SPLFRAME
 70
     0
  9
$SPLINETYPE
 70
     6
  9
$SPLINESEGS
 70
     8
  9
$HANDSEED
  5
1C8
  9
$SURFTAB1
 70
     6
  9
$SURFTAB2
 70
     6
  9
$SURFTYPE
 70
     6
  9
$SURFU
 70
     6
  9
$SURFV
 70
     6
  9
$UCSBASE
  2

  9
$UCSNAME
  2

  9
$UCSORG
 10
0.0
 20
0.0
 30
0.0
  9
$UCSXDIR
 10
1.0
 20
0.0
 30
0.0
  9
$UCSYDIR
 10
0.0
 20
1.0
 30
0.0
  9
$UCSORTHOREF
  2

  9
$UCSORTHOVIEW
 70
     0
  9
$UCSORGTOP
 10
0.0
 20
0.0
 30
0.0
  9
$UCSORGBOTTOM
 10
0.0
 20
0.0
 30
0.0
  9
$UCSORGLEFT
 10
0.0
 20
0.0
 30
0.0
  9
$UCSORGRIGHT
 10
0.0
 20
0.0
 30
0.0
  9
$UCSORGFRONT
 10
0.0
 20
0.0
 30
0.0
  9
$UCSORGBACK
 10
0.0
 20
0.0
 30
0.0
  9
$PUCSBASE
  2

  9
$PUCSNAME
  2

  9
$PUCSORG
 10
0.0
 20
0.0
 30
0.0
  9
$PUCSXDIR
 10
1.0
 20
0.0
 30
0.0
  9
$PUCSYDIR
 10
0.0
 20
1.0
 30
0.0
  9
$PUCSORTHOREF
  2

  9
$PUCSORTHOVIEW
 70
     0
  9
$PUCSORGTOP
 10
0.0
 20
0.0
 30
0.0
  9
$PUCSORGBOTTOM
 10
0.0
 20
0.0
 30
0.0
  9
$PUCSORGLEFT
 10
0.0
 20
0.0
 30
0.0
  9
$PUCSORGRIGHT
 10
0.0
 20
0.0
 30
0.0
  9
$PUCSORGFRONT
 10
0.0
 20
0.0
 30
0.0
  9
$PUCSORGBACK
 10
0.0
 20
0.0
 30
0.0
  9
$USERI1
 70
     0
  9
$USERI2
 70
     0
  9
$USERI3
 70
     0
  9
$USERI4
 70
     0
  9
$USERI5
 70
     0
  9
$USERR1
 40
0.0
  9
$USERR2
 40
0.0
  9
$USERR3
 40
0.0
  9
$USERR4
 40
0.0
  9
$USERR5
 40
0.0
  9
$WORLDVIEW
 70
     1
  9
$SHADEDGE
 70
     3
  9
$SHADEDIF
 70
    70
  9
$TILEMODE
 70
     1
  9
$MAXACTVP
 70
    64
  9
$PINSBASE
 10
0.0
 20
0.0
 30
0.0
  9
$PLIMCHECK
 70
     0
  9
$PEXTMIN
 10
1.0000000000E+20
 20
1.0000000000E+20
 30
1.0000000000E+20
  9
$PEXTMAX
 10
-1.0000000000E+20
 20
-1.0000000000E+20
 30
-1.0000000000E+20
  9
$PLIMMIN
 10
0.0
 20
0.0
  9
$PLIMMAX
 10
420.0
 20
297.0
  9
$UNITMODE
 70
     0
  9
$VISRETAIN
 70
     1
  9
$PLINEGEN
 70
     0
  9
$PSLTSCALE
 70
     1
  9
$TREEDEPTH
 70
  3020
  9
$CMLSTYLE
  2
Standard
  9
$CMLJUST
 70
     0
  9
$CMLSCALE
 40
20.0
  9
$PROXYGRAPHICS
 70
     1
  9
$MEASUREMENT
 70
     1
  9
$CELWEIGHT
370
    -1
  9
$ENDCAPS
280
     0
  9
$JOINSTYLE
280
     0
  9
$LWDISPLAY
290
     1
  9
$INSUNITS
 70
     4
  9
$HYPERLINKBASE
  1

  9
$STYLESHEET
  1

  9
$XEDIT
290
     1
  9
$CEPSNTYPE
380
     0
  9
$PSTYLEMODE
290
     1
  9
$FINGERPRINTGUID
  2
{0ff08d8c-a076-46a1-a9d2-60d3c8833a6a}
  9
$VERSIONGUID
  2
{FAEB1C32-E019-11D5-929B-00C0DF256EC4}
  9
$EXTNAMES
290
     1
  9
$PSVPSCALE
 40
0.0
  9
$OLESTARTUP
290
     0
  0
ENDSEC
  0
SECTION
  2
CLASSES
  0
CLASS
  1
ACDBDICTIONARYWDFLT
  2
AcDbDictionaryWithDefault
  3
ObjectDBX Classes
 90
        0
280
     0
281
     0
  0
CLASS
  1
VISUALSTYLE
  2
AcDbVisualStyle
  3
ObjectDBX Classes
 90
     4095
280
     0
281
     0
  0
CLASS
  1
MATERIAL
  2
AcDbMaterial
  3
ObjectDBX Classes
 90
     1153
280
     0
281
     0
  0
CLASS
  1
SCALE
  2
AcDbScale
  3
ObjectDBX Classes
 90
     1153
280
     0
281
     0
  0
CLASS
  1
TABLESTYLE
  2
AcDbTableStyle
  3
ObjectDBX Classes
 90
     4095
280
     0
281
     0
  0
CLASS
  1
MLEADERSTYLE
  2
AcDbMLeaderStyle
  3
ACDB_MLEADERSTYLE_CLASS
 90
     4095
280
     0
281
     0
  0
CLASS
  1
SUN
  2
AcDbSun
  3
SCENEOE
 90
     1153
280
     0
281
     0
  0
CLASS
  1
ACDBPLACEHOLDER
  2
AcDbPlaceHolder
  3
ObjectDBX Classes
 90
        0
280
     0
281
     0
  0
CLASS
  1
LAYOUT
  2
AcDbLayout
  3
ObjectDBX Classes
 90
        0
280
     0
281
     0
  0
ENDSEC
  0
SECTION
  2
TABLES
  0
TABLE
  2
VPORT
  5
8
330
0
100
AcDbSymbolTable
 70
     1
  0
VPORT
  5
29
330
8
100
AcDbSymbolTableRecord
100
AcDbViewportTableRecord
  2
*Active
 70
     0
 10
0.0
 20
0.0
 11
1.0
 21
1.0
 12
139.7
 22
107.95
 13
0.0
 23
0.0
 14
10.0
 24
10.0
 15
10.0
 25
10.0
 16
0.0
 26
0.0
 36
1.0
 17
0.0
 27
0.0
 37
0.0
 40
215.9
 41
1.2941176471
 42
50.0
 43
0.0
 44
0.0
 50
0.0
 51
0.0
 71
     0
 72
  2000
 73
     1
 74
     3
 75
     0
 76
     0
 77
     0
 78
     0
281
     0
 65
     1
110
0.0
120
0.0
130
0.0
111
1.0
121
0.0
131
0.0
112
0.0
122
1.0
132
0.0
 79
     0
146
0.0
  0
ENDTAB
  0
TABLE
  2
LTYPE
  5
5
330
0
100
AcDbSymbolTable
 70
     6
  0
LTYPE
  5
14
330
5
100
AcDbSymbolTableRecord
100
AcDbLinetypeTableRecord
  2
ByBlock
 70
     0
  3

 72
    65
 73
     0
 40
0.0
  0
LTYPE
  5
15
330
5
100
AcDbSymbolTableRecord
100
AcDbLinetypeTableRecord
  2
ByLayer
 70
     0
  3

 72
    65
 73
     0
 40
0.0
  0
LTYPE
  5
16
330
5
100
AcDbSymbolTableRecord
100
AcDbLinetypeTableRecord
  2
Continuous
 70
     0
  3
Solid line
 72
    65
 73
     0
 40
0.0
  0
LTYPE
  5
6E
330
5
100
AcDbSymbolTableRecord
100
AcDbLinetypeTableRecord
  2
HIDDEN
 70
     0
  3
Hidden __ __ __ __ __ __ __ __ __ __ __ __ __ __
 72
    65
 73
     2
 40
1.905
 49
1.27
 74
     0
 49
-0.635
 74
     0
  0
LTYPE
  5
6F
330
5
100
AcDbSymbolTableRecord
100
AcDbLinetypeTableRecord
  2
PHANTOM
 70
     0
  3
Phantom ______  __  __  ______  __  __  ______
 72
    65
 73
     6
 40
12.7
 49
6.35
 74
     0
 49
-1.27
 74
     0
 49
1.27
 74
     0
 49
-1.27
 74
     0
 49
1.27
 74
     0
 49
-1.27
 74
     0
  0
LTYPE
  5
70
330
5
100
AcDbSymbolTableRecord
100
AcDbLinetypeTableRecord
  2
CENTER
 70
     0
  3
Center ____ _ ____ _ ____ _ ____ _ ____ _ ____
 72
    65
 73
     4
 40
10.16
 49
6.35
 74
     0
 49
-1.27
 74
     0
 49
1.27
 74
     0
 49
-1.27
 74
     0
  0
LTYPE
  5
71
330
5
100
AcDbSymbolTableRecord
100
AcDbLinetypeTableRecord
  2
CENTERX2
 70
     0
  3
Center (2x) ________  __  ________  __  _____
 72
    65
 73
     4
 40
20.32
 49
12.7
 74
     0
 49
-2.54
 74
     0
 49
2.54
 74
     0
 49
-2.54
 74
     0
  0
LTYPE
  5
72
330
5
100
AcDbSymbolTableRecord
100
AcDbLinetypeTableRecord
  2
DOT2
 70
     0
  3
Dot (.5x) ........................................
 72
    65
 73
     2
 40
0.635
 49
0.0
 74
     0
 49
-0.635
 74
     0
  0
ENDTAB
  0
TABLE
  2
LAYER
  5
2
330
0
100
AcDbSymbolTable
 70
    17
  0
LAYER
  5
10
330
2
100
AcDbSymbolTableRecord
100
AcDbLayerTableRecord
  2
0
 70
     0
 62
     7
  6
Continuous
370
    -3
390
F
  0
LAYER
  5
73
330
2
100
AcDbSymbolTableRecord
100
AcDbLayerTableRecord
  2
FORMAT
 70
     0
 62
     7
  6
Continuous
370
    -3
390
F
  0
LAYER
  5
74
330
2
100
AcDbSymbolTableRecord
100
AcDbLayerTableRecord
  2
YARDIMCI_GEOMETRI
 70
     0
 62
    -6
  6
Continuous
290
     0
370
    -3
390
F
  0
LAYER
  5
75
330
2
100
AcDbSymbolTableRecord
100
AcDbLayerTableRecord
  2
SAYFA_CERCEVESI
 70
     0
 62
     7
  6
Continuous
370
    25
390
F
  0
LAYER
  5
76
330
2
100
AcDbSymbolTableRecord
100
AcDbLayerTableRecord
  2
ANTET
 70
     0
 62
     7
  6
Continuous
370
    -3
390
F
  0
LAYER
  5
77
330
2
100
AcDbSymbolTableRecord
100
AcDbLayerTableRecord
  2
OLCU
 70
     0
 62
   150
  6
Continuous
370
    -3
390
F
  0
LAYER
  5
78
330
2
100
AcDbSymbolTableRecord
100
AcDbLayerTableRecord
  2
METIN
 70
     0
 62
    96
  6
Continuous
370
    -3
390
F
  0
LAYER
  5
79
330
2
100
AcDbSymbolTableRecord
100
AcDbLayerTableRecord
  2
BALON
 70
     0
 62
     5
  6
Continuous
370
    -3
390
F
  0
LAYER
  5
7A
330
2
100
AcDbSymbolTableRecord
100
AcDbLayerTableRecord
  2
VURGU
 70
     0
 62
     7
  6
Continuous
370
    -3
390
F
  0
LAYER
  5
7B
330
2
100
AcDbSymbolTableRecord
100
AcDbLayerTableRecord
  2
SILIK
 70
     0
 62
     7
  6
Continuous
370
    -3
390
F
  0
LAYER
  5
7C
330
2
100
AcDbSymbolTableRecord
100
AcDbLayerTableRecord
  2
MODEL
 70
     0
 62
     7
  6
Continuous
370
    -3
390
F
  0
LAYER
  5
7D
330
2
100
AcDbSymbolTableRecord
100
AcDbLayerTableRecord
  2
DETAYLANDıRMA
 70
     0
 62
   190
  6
Continuous
370
    -3
390
F
  0
LAYER
  5
7E
330
2
100
AcDbSymbolTableRecord
100
AcDbLayerTableRecord
  2
TOLERANS
 70
     0
 62
   230
  6
Continuous
370
    -3
390
F
  0
LAYER
  5
7F
330
2
100
AcDbSymbolTableRecord
100
AcDbLayerTableRecord
  2
MERKEZ_CIZGILERI
 70
     0
 62
    30
  6
Continuous
370
    -3
390
F
  0
LAYER
  5
80
330
2
100
AcDbSymbolTableRecord
100
AcDbLayerTableRecord
  2
KESIT-DETAY_CIZGILERI
 70
     0
 62
     7
  6
Continuous
370
    -3
390
F
  0
LAYER
  5
81
330
2
100
AcDbSymbolTableRecord
100
AcDbLayerTableRecord
  2
\U+041E\U+0421\U+0415\U+0412\U+042B\U+0415
 70
     0
 62
     7
  6
Continuous
370
    -3
390
F
  0
LAYER
  5
82
330
2
100
AcDbSymbolTableRecord
100
AcDbLayerTableRecord
  2
\U+0412\U+041E\U+0414\U+042F\U+041D\U+042B\U+0415_\U+0417\U+041D\U+0410\U+041A\U+0418
 70
     0
 62
    11
  6
Continuous
370
    -3
390
F
  0
ENDTAB
  0
TABLE
  2
STYLE
  5
3
330
0
100
AcDbSymbolTable
 70
     1
  0
STYLE
  5
11
330
3
100
AcDbSymbolTableRecord
100
AcDbTextStyleTableRecord
  2
Standard
 70
     0
 40
0.0
 41
1.0
 50
0.0
 71
     0
 42
3.5
  3
txt
  4

  0
ENDTAB
  0
TABLE
  2
VIEW
  5
6
330
0
100
AcDbSymbolTable
 70
     0
  0
ENDTAB
  0
TABLE
  2
UCS
  5
7
330
0
100
AcDbSymbolTable
 70
     0
  0
ENDTAB
  0
TABLE
  2
APPID
  5
9
330
0
100
AcDbSymbolTable
 70
     1
  0
APPID
  5
12
330
9
100
AcDbSymbolTableRecord
100
AcDbRegAppTableRecord
  2
ACAD
 70
     0
  0
ENDTAB
  0
TABLE
  2
DIMSTYLE
  5
A
330
0
100
AcDbSymbolTable
 70
     1
100
AcDbDimStyleTable
  0
DIMSTYLE
105
27
330
A
100
AcDbSymbolTableRecord
100
AcDbDimStyleTableRecord
  2
ISO-25
 70
     0
 41
2.5
 42
0.625
 43
3.75
 44
1.25
 73
     0
 74
     0
 77
     1
 78
     8
140
2.5
141
2.5
143
0.0393700787
147
0.625
171
     3
172
     1
178
     0
271
     2
272
     2
274
     3
278
    44
283
     0
284
     8
340
11
  0
ENDTAB
  0
TABLE
  2
BLOCK_RECORD
  5
1
330
0
100
AcDbSymbolTable
 70
    14
  0
BLOCK_RECORD
  5
1F
330
1
100
AcDbSymbolTableRecord
100
AcDbBlockTableRecord
  2
*Model_Space
340
22
  0
BLOCK_RECORD
  5
1B
330
1
100
AcDbSymbolTableRecord
100
AcDbBlockTableRecord
  2
*Paper_Space
340
1E
  0
BLOCK_RECORD
  5
23
330
1
100
AcDbSymbolTableRecord
100
AcDbBlockTableRecord
  2
*Paper_Space0
340
26
  0
BLOCK_RECORD
  5
9F
330
1
100
AcDbSymbolTableRecord
100
AcDbBlockTableRecord
  2
SW_CENTERMARKSYMBOL_0
340
0
102
{BLKREFS
331
AA
102
}
  0
BLOCK_RECORD
  5
AB
330
1
100
AcDbSymbolTableRecord
100
AcDbBlockTableRecord
  2
SW_CENTERMARKSYMBOL_1
340
0
102
{BLKREFS
331
B6
102
}
  0
BLOCK_RECORD
  5
B7
330
1
100
AcDbSymbolTableRecord
100
AcDbBlockTableRecord
  2
SW_CENTERMARKSYMBOL_2
340
0
102
{BLKREFS
331
C2
102
}
  0
BLOCK_RECORD
  5
C3
330
1
100
AcDbSymbolTableRecord
100
AcDbBlockTableRecord
  2
SW_CENTERMARKSYMBOL_3
340
0
102
{BLKREFS
331
CE
102
}
  0
BLOCK_RECORD
  5
CF
330
1
100
AcDbSymbolTableRecord
100
AcDbBlockTableRecord
  2
SW_CENTERMARKSYMBOL_4
340
0
102
{BLKREFS
331
DA
102
}
  0
BLOCK_RECORD
  5
DB
330
1
100
AcDbSymbolTableRecord
100
AcDbBlockTableRecord
  2
SW_CENTERMARKSYMBOL_5
340
0
102
{BLKREFS
331
E6
102
}
  0
BLOCK_RECORD
  5
E7
330
1
100
AcDbSymbolTableRecord
100
AcDbBlockTableRecord
  2
SW_CENTERMARKSYMBOL_6
340
0
102
{BLKREFS
331
F2
102
}
  0
BLOCK_RECORD
  5
F3
330
1
100
AcDbSymbolTableRecord
100
AcDbBlockTableRecord
  2
SW_CENTERMARKSYMBOL_7
340
0
102
{BLKREFS
331
FE
102
}
  0
BLOCK_RECORD
  5
FF
330
1
100
AcDbSymbolTableRecord
100
AcDbBlockTableRecord
  2
SW_CENTERMARKSYMBOL_8
340
0
102
{BLKREFS
331
10A
102
}
  0
BLOCK_RECORD
  5
10B
330
1
100
AcDbSymbolTableRecord
100
AcDbBlockTableRecord
  2
SW_CENTERMARKSYMBOL_9
340
0
102
{BLKREFS
331
116
102
}
  0
BLOCK_RECORD
  5
117
330
1
100
AcDbSymbolTableRecord
100
AcDbBlockTableRecord
  2
SW_CENTERMARKSYMBOL_10
340
0
102
{BLKREFS
331
122
102
}
  0
BLOCK_RECORD
  5
123
330
1
100
AcDbSymbolTableRecord
100
AcDbBlockTableRecord
  2
SW_CENTERMARKSYMBOL_11
340
0
102
{BLKREFS
331
12E
102
}
  0
BLOCK_RECORD
  5
12F
330
1
100
AcDbSymbolTableRecord
100
AcDbBlockTableRecord
  2
SW_CENTERMARKSYMBOL_12
340
0
102
{BLKREFS
331
13A
102
}
  0
ENDTAB
  0
ENDSEC
  0
SECTION
  2
BLOCKS
  0
BLOCK
  5
20
330
1F
100
AcDbEntity
  8
0
100
AcDbBlockBegin
  2
*Model_Space
 70
     0
 10
0.0
 20
0.0
 30
0.0
  3
*Model_Space
  1

  0
ENDBLK
  5
21
330
1F
100
AcDbEntity
  8
0
100
AcDbBlockEnd
  0
BLOCK
  5
1C
330
1B
100
AcDbEntity
 67
     1
  8
0
100
AcDbBlockBegin
  2
*Paper_Space
 70
     0
 10
0.0
 20
0.0
 30
0.0
  3
*Paper_Space
  1

  0
ENDBLK
  5
1D
330
1B
100
AcDbEntity
 67
     1
  8
0
100
AcDbBlockEnd
  0
BLOCK
  5
24
330
23
100
AcDbEntity
  8
0
100
AcDbBlockBegin
  2
*Paper_Space0
 70
     0
 10
0.0
 20
0.0
 30
0.0
  3
*Paper_Space0
  1

  0
ENDBLK
  5
25
330
23
100
AcDbEntity
  8
0
100
AcDbBlockEnd
  0
BLOCK
  5
A0
330
9F
100
AcDbEntity
  8
0
100
AcDbBlockBegin
  2
SW_CENTERMARKSYMBOL_0
 70
     0
 10
0.0
 20
0.0
 30
0.0
  3
SW_CENTERMARKSYMBOL_0
  1

  0
LINE
  5
A2
330
9F
100
AcDbEntity
  8
FORMAT
 62
     0
100
AcDbLine
 10
0.0
 20
0.0
 30
0.0
 11
0.0
 21
2.5
 31
0.0
  0
LINE
  5
A3
330
9F
100
AcDbEntity
  8
FORMAT
 62
     0
100
AcDbLine
 10
0.0
 20
0.0
 30
0.0
 11
-2.5
 21
0.0
 31
0.0
  0
LINE
  5
A4
330
9F
100
AcDbEntity
  8
FORMAT
 62
     0
100
AcDbLine
 10
0.0
 20
0.0
 30
0.0
 11
0.0
 21
-2.5
 31
0.0
  0
LINE
  5
A5
330
9F
100
AcDbEntity
  8
FORMAT
 62
     0
100
AcDbLine
 10
0.0
 20
0.0
 30
0.0
 11
2.5
 21
0.0
 31
0.0
  0
LINE
  5
A6
330
9F
100
AcDbEntity
  8
FORMAT
 62
     0
100
AcDbLine
 10
0.0
 20
5.0
 30
0.0
 11
0.0
 21
172.5
 31
0.0
  0
LINE
  5
A7
330
9F
100
AcDbEntity
  8
FORMAT
 62
     0
100
AcDbLine
 10
-5.0
 20
0.0
 30
0.0
 11
-172.5
 21
0.0
 31
0.0
  0
LINE
  5
A8
330
9F
100
AcDbEntity
  8
FORMAT
 62
     0
100
AcDbLine
 10
0.0
 20
-5.0
 30
0.0
 11
0.0
 21
-172.5
 31
0.0
  0
LINE
  5
A9
330
9F
100
AcDbEntity
  8
FORMAT
 62
     0
100
AcDbLine
 10
5.0
 20
0.0
 30
0.0
 11
172.5
 21
0.0
 31
0.0
  0
ENDBLK
  5
A1
330
9F
100
AcDbEntity
  8
0
100
AcDbBlockEnd
  0
BLOCK
  5
AC
330
AB
100
AcDbEntity
  8
0
100
AcDbBlockBegin
  2
SW_CENTERMARKSYMBOL_1
 70
     0
 10
0.0
 20
0.0
 30
0.0
  3
SW_CENTERMARKSYMBOL_1
  1

  0
LINE
  5
AE
330
AB
100
AcDbEntity
  8
FORMAT
 62
     0
100
AcDbLine
 10
0.0
 20
0.0
 30
0.0
 11
0.0
 21
2.5
 31
0.0
  0
LINE
  5
AF
330
AB
100
AcDbEntity
  8
FORMAT
 62
     0
100
AcDbLine
 10
0.0
 20
0.0
 30
0.0
 11
-2.5
 21
0.0
 31
0.0
  0
LINE
  5
B0
330
AB
100
AcDbEntity
  8
FORMAT
 62
     0
100
AcDbLine
 10
0.0
 20
0.0
 30
0.0
 11
0.0
 21
-2.5
 31
0.0
  0
LINE
  5
B1
330
AB
100
AcDbEntity
  8
FORMAT
 62
     0
100
AcDbLine
 10
0.0
 20
0.0
 30
0.0
 11
2.5
 21
0.0
 31
0.0
  0
LINE
  5
B2
330
AB
100
AcDbEntity
  8
FORMAT
 62
     0
100
AcDbLine
 10
0.0
 20
5.0
 30
0.0
 11
0.0
 21
13.5
 31
0.0
  0
LINE
  5
B3
330
AB
100
AcDbEntity
  8
FORMAT
 62
     0
100
AcDbLine
 10
-5.0
 20
0.0
 30
0.0
 11
-13.5
 21
0.0
 31
0.0
  0
LINE
  5
B4
330
AB
100
AcDbEntity
  8
FORMAT
 62
     0
100
AcDbLine
 10
0.0
 20
-5.0
 30
0.0
 11
0.0
 21
-13.5
 31
0.0
  0
LINE
  5
B5
330
AB
100
AcDbEntity
  8
FORMAT
 62
     0
100
AcDbLine
 10
5.0
 20
0.0
 30
0.0
 11
13.5
 21
0.0
 31
0.0
  0
ENDBLK
  5
AD
330
AB
100
AcDbEntity
  8
0
100
AcDbBlockEnd
  0
BLOCK
  5
B8
330
B7
100
AcDbEntity
  8
0
100
AcDbBlockBegin
  2
SW_CENTERMARKSYMBOL_2
 70
     0
 10
0.0
 20
0.0
 30
0.0
  3
SW_CENTERMARKSYMBOL_2
  1

  0
LINE
  5
BA
330
B7
100
AcDbEntity
  8
FORMAT
 62
     0
100
AcDbLine
 10
0.0
 20
0.0
 30
0.0
 11
0.0
 21
2.5
 31
0.0
  0
LINE
  5
BB
330
B7
100
AcDbEntity
  8
FORMAT
 62
     0
100
AcDbLine
 10
0.0
 20
0.0
 30
0.0
 11
-2.5
 21
0.0
 31
0.0
  0
LINE
  5
BC
330
B7
100
AcDbEntity
  8
FORMAT
 62
     0
100
AcDbLine
 10
0.0
 20
0.0
 30
0.0
 11
0.0
 21
-2.5
 31
0.0
  0
LINE
  5
BD
330
B7
100
AcDbEntity
  8
FORMAT
 62
     0
100
AcDbLine
 10
0.0
 20
0.0
 30
0.0
 11
2.5
 21
0.0
 31
0.0
  0
LINE
  5
BE
330
B7
100
AcDbEntity
  8
FORMAT
 62
     0
100
AcDbLine
 10
0.0
 20
5.0
 30
0.0
 11
0.0
 21
13.5
 31
0.0
  0
LINE
  5
BF
330
B7
100
AcDbEntity
  8
FORMAT
 62
     0
100
AcDbLine
 10
-5.0
 20
0.0
 30
0.0
 11
-13.5
 21
0.0
 31
0.0
  0
LINE
  5
C0
330
B7
100
AcDbEntity
  8
FORMAT
 62
     0
100
AcDbLine
 10
0.0
 20
-5.0
 30
0.0
 11
0.0
 21
-13.5
 31
0.0
  0
LINE
  5
C1
330
B7
100
AcDbEntity
  8
FORMAT
 62
     0
100
AcDbLine
 10
5.0
 20
0.0
 30
0.0
 11
13.5
 21
0.0
 31
0.0
  0
ENDBLK
  5
B9
330
B7
100
AcDbEntity
  8
0
100
AcDbBlockEnd
  0
BLOCK
  5
C4
330
C3
100
AcDbEntity
  8
0
100
AcDbBlockBegin
  2
SW_CENTERMARKSYMBOL_3
 70
     0
 10
0.0
 20
0.0
 30
0.0
  3
SW_CENTERMARKSYMBOL_3
  1

  0
LINE
  5
C6
330
C3
100
AcDbEntity
  8
FORMAT
 62
     0
100
AcDbLine
 10
0.0
 20
0.0
 30
0.0
 11
0.0
 21
2.5
 31
0.0
  0
LINE
  5
C7
330
C3
100
AcDbEntity
  8
FORMAT
 62
     0
100
AcDbLine
 10
0.0
 20
0.0
 30
0.0
 11
-2.5
 21
0.0
 31
0.0
  0
LINE
  5
C8
330
C3
100
AcDbEntity
  8
FORMAT
 62
     0
100
AcDbLine
 10
0.0
 20
0.0
 30
0.0
 11
0.0
 21
-2.5
 31
0.0
  0
LINE
  5
C9
330
C3
100
AcDbEntity
  8
FORMAT
 62
     0
100
AcDbLine
 10
0.0
 20
0.0
 30
0.0
 11
2.5
 21
0.0
 31
0.0
  0
LINE
  5
CA
330
C3
100
AcDbEntity
  8
FORMAT
 62
     0
100
AcDbLine
 10
0.0
 20
5.0
 30
0.0
 11
0.0
 21
13.5
 31
0.0
  0
LINE
  5
CB
330
C3
100
AcDbEntity
  8
FORMAT
 62
     0
100
AcDbLine
 10
-5.0
 20
0.0
 30
0.0
 11
-13.5
 21
0.0
 31
0.0
  0
LINE
  5
CC
330
C3
100
AcDbEntity
  8
FORMAT
 62
     0
100
AcDbLine
 10
0.0
 20
-5.0
 30
0.0
 11
0.0
 21
-13.5
 31
0.0
  0
LINE
  5
CD
330
C3
100
AcDbEntity
  8
FORMAT
 62
     0
100
AcDbLine
 10
5.0
 20
0.0
 30
0.0
 11
13.5
 21
0.0
 31
0.0
  0
ENDBLK
  5
C5
330
C3
100
AcDbEntity
  8
0
100
AcDbBlockEnd
  0
BLOCK
  5
D0
330
CF
100
AcDbEntity
  8
0
100
AcDbBlockBegin
  2
SW_CENTERMARKSYMBOL_4
 70
     0
 10
0.0
 20
0.0
 30
0.0
  3
SW_CENTERMARKSYMBOL_4
  1

  0
LINE
  5
D2
330
CF
100
AcDbEntity
  8
FORMAT
 62
     0
100
AcDbLine
 10
0.0
 20
0.0
 30
0.0
 11
0.0
 21
2.5
 31
0.0
  0
LINE
  5
D3
330
CF
100
AcDbEntity
  8
FORMAT
 62
     0
100
AcDbLine
 10
0.0
 20
0.0
 30
0.0
 11
-2.5
 21
0.0
 31
0.0
  0
LINE
  5
D4
330
CF
100
AcDbEntity
  8
FORMAT
 62
     0
100
AcDbLine
 10
0.0
 20
0.0
 30
0.0
 11
0.0
 21
-2.5
 31
0.0
  0
LINE
  5
D5
330
CF
100
AcDbEntity
  8
FORMAT
 62
     0
100
AcDbLine
 10
0.0
 20
0.0
 30
0.0
 11
2.5
 21
0.0
 31
0.0
  0
LINE
  5
D6
330
CF
100
AcDbEntity
  8
FORMAT
 62
     0
100
AcDbLine
 10
0.0
 20
5.0
 30
0.0
 11
0.0
 21
13.5
 31
0.0
  0
LINE
  5
D7
330
CF
100
AcDbEntity
  8
FORMAT
 62
     0
100
AcDbLine
 10
-5.0
 20
0.0
 30
0.0
 11
-13.5
 21
0.0
 31
0.0
  0
LINE
  5
D8
330
CF
100
AcDbEntity
  8
FORMAT
 62
     0
100
AcDbLine
 10
0.0
 20
-5.0
 30
0.0
 11
0.0
 21
-13.5
 31
0.0
  0
LINE
  5
D9
330
CF
100
AcDbEntity
  8
FORMAT
 62
     0
100
AcDbLine
 10
5.0
 20
0.0
 30
0.0
 11
13.5
 21
0.0
 31
0.0
  0
ENDBLK
  5
D1
330
CF
100
AcDbEntity
  8
0
100
AcDbBlockEnd
  0
BLOCK
  5
DC
330
DB
100
AcDbEntity
  8
0
100
AcDbBlockBegin
  2
SW_CENTERMARKSYMBOL_5
 70
     0
 10
0.0
 20
0.0
 30
0.0
  3
SW_CENTERMARKSYMBOL_5
  1

  0
LINE
  5
DE
330
DB
100
AcDbEntity
  8
FORMAT
 62
     0
100
AcDbLine
 10
0.0
 20
0.0
 30
0.0
 11
0.0
 21
2.5
 31
0.0
  0
LINE
  5
DF
330
DB
100
AcDbEntity
  8
FORMAT
 62
     0
100
AcDbLine
 10
0.0
 20
0.0
 30
0.0
 11
-2.5
 21
0.0
 31
0.0
  0
LINE
  5
E0
330
DB
100
AcDbEntity
  8
FORMAT
 62
     0
100
AcDbLine
 10
0.0
 20
0.0
 30
0.0
 11
0.0
 21
-2.5
 31
0.0
  0
LINE
  5
E1
330
DB
100
AcDbEntity
  8
FORMAT
 62
     0
100
AcDbLine
 10
0.0
 20
0.0
 30
0.0
 11
2.5
 21
0.0
 31
0.0
  0
LINE
  5
E2
330
DB
100
AcDbEntity
  8
FORMAT
 62
     0
100
AcDbLine
 10
0.0
 20
5.0
 30
0.0
 11
0.0
 21
14.5
 31
0.0
  0
LINE
  5
E3
330
DB
100
AcDbEntity
  8
FORMAT
 62
     0
100
AcDbLine
 10
-5.0
 20
0.0
 30
0.0
 11
-14.5
 21
0.0
 31
0.0
  0
LINE
  5
E4
330
DB
100
AcDbEntity
  8
FORMAT
 62
     0
100
AcDbLine
 10
0.0
 20
-5.0
 30
0.0
 11
0.0
 21
-14.5
 31
0.0
  0
LINE
  5
E5
330
DB
100
AcDbEntity
  8
FORMAT
 62
     0
100
AcDbLine
 10
5.0
 20
0.0
 30
0.0
 11
14.5
 21
0.0
 31
0.0
  0
ENDBLK
  5
DD
330
DB
100
AcDbEntity
  8
0
100
AcDbBlockEnd
  0
BLOCK
  5
E8
330
E7
100
AcDbEntity
  8
0
100
AcDbBlockBegin
  2
SW_CENTERMARKSYMBOL_6
 70
     0
 10
0.0
 20
0.0
 30
0.0
  3
SW_CENTERMARKSYMBOL_6
  1

  0
LINE
  5
EA
330
E7
100
AcDbEntity
  8
FORMAT
 62
     0
100
AcDbLine
 10
0.0
 20
0.0
 30
0.0
 11
0.0
 21
2.5
 31
0.0
  0
LINE
  5
EB
330
E7
100
AcDbEntity
  8
FORMAT
 62
     0
100
AcDbLine
 10
0.0
 20
0.0
 30
0.0
 11
-2.5
 21
0.0
 31
0.0
  0
LINE
  5
EC
330
E7
100
AcDbEntity
  8
FORMAT
 62
     0
100
AcDbLine
 10
0.0
 20
0.0
 30
0.0
 11
0.0
 21
-2.5
 31
0.0
  0
LINE
  5
ED
330
E7
100
AcDbEntity
  8
FORMAT
 62
     0
100
AcDbLine
 10
0.0
 20
0.0
 30
0.0
 11
2.5
 21
0.0
 31
0.0
  0
LINE
  5
EE
330
E7
100
AcDbEntity
  8
FORMAT
 62
     0
100
AcDbLine
 10
0.0
 20
5.0
 30
0.0
 11
0.0
 21
14.5
 31
0.0
  0
LINE
  5
EF
330
E7
100
AcDbEntity
  8
FORMAT
 62
     0
100
AcDbLine
 10
-5.0
 20
0.0
 30
0.0
 11
-14.5
 21
0.0
 31
0.0
  0
LINE
  5
F0
330
E7
100
AcDbEntity
  8
FORMAT
 62
     0
100
AcDbLine
 10
0.0
 20
-5.0
 30
0.0
 11
0.0
 21
-14.5
 31
0.0
  0
LINE
  5
F1
330
E7
100
AcDbEntity
  8
FORMAT
 62
     0
100
AcDbLine
 10
5.0
 20
0.0
 30
0.0
 11
14.5
 21
0.0
 31
0.0
  0
ENDBLK
  5
E9
330
E7
100
AcDbEntity
  8
0
100
AcDbBlockEnd
  0
BLOCK
  5
F4
330
F3
100
AcDbEntity
  8
0
100
AcDbBlockBegin
  2
SW_CENTERMARKSYMBOL_7
 70
     0
 10
0.0
 20
0.0
 30
0.0
  3
SW_CENTERMARKSYMBOL_7
  1

  0
LINE
  5
F6
330
F3
100
AcDbEntity
  8
FORMAT
 62
     0
100
AcDbLine
 10
0.0
 20
0.0
 30
0.0
 11
0.0
 21
2.5
 31
0.0
  0
LINE
  5
F7
330
F3
100
AcDbEntity
  8
FORMAT
 62
     0
100
AcDbLine
 10
0.0
 20
0.0
 30
0.0
 11
-2.5
 21
0.0
 31
0.0
  0
LINE
  5
F8
330
F3
100
AcDbEntity
  8
FORMAT
 62
     0
100
AcDbLine
 10
0.0
 20
0.0
 30
0.0
 11
0.0
 21
-2.5
 31
0.0
  0
LINE
  5
F9
330
F3
100
AcDbEntity
  8
FORMAT
 62
     0
100
AcDbLine
 10
0.0
 20
0.0
 30
0.0
 11
2.5
 21
0.0
 31
0.0
  0
LINE
  5
FA
330
F3
100
AcDbEntity
  8
FORMAT
 62
     0
100
AcDbLine
 10
0.0
 20
5.0
 30
0.0
 11
0.0
 21
14.5
 31
0.0
  0
LINE
  5
FB
330
F3
100
AcDbEntity
  8
FORMAT
 62
     0
100
AcDbLine
 10
-5.0
 20
0.0
 30
0.0
 11
-14.5
 21
0.0
 31
0.0
  0
LINE
  5
FC
330
F3
100
AcDbEntity
  8
FORMAT
 62
     0
100
AcDbLine
 10
0.0
 20
-5.0
 30
0.0
 11
0.0
 21
-14.5
 31
0.0
  0
LINE
  5
FD
330
F3
100
AcDbEntity
  8
FORMAT
 62
     0
100
AcDbLine
 10
5.0
 20
0.0
 30
0.0
 11
14.5
 21
0.0
 31
0.0
  0
ENDBLK
  5
F5
330
F3
100
AcDbEntity
  8
0
100
AcDbBlockEnd
  0
BLOCK
  5
100
330
FF
100
AcDbEntity
  8
0
100
AcDbBlockBegin
  2
SW_CENTERMARKSYMBOL_8
 70
     0
 10
0.0
 20
0.0
 30
0.0
  3
SW_CENTERMARKSYMBOL_8
  1

  0
LINE
  5
102
330
FF
100
AcDbEntity
  8
FORMAT
 62
     0
100
AcDbLine
 10
0.0
 20
0.0
 30
0.0
 11
0.0
 21
2.5
 31
0.0
  0
LINE
  5
103
330
FF
100
AcDbEntity
  8
FORMAT
 62
     0
100
AcDbLine
 10
0.0
 20
0.0
 30
0.0
 11
-2.5
 21
0.0
 31
0.0
  0
LINE
  5
104
330
FF
100
AcDbEntity
  8
FORMAT
 62
     0
100
AcDbLine
 10
0.0
 20
0.0
 30
0.0
 11
0.0
 21
-2.5
 31
0.0
  0
LINE
  5
105
330
FF
100
AcDbEntity
  8
FORMAT
 62
     0
100
AcDbLine
 10
0.0
 20
0.0
 30
0.0
 11
2.5
 21
0.0
 31
0.0
  0
LINE
  5
106
330
FF
100
AcDbEntity
  8
FORMAT
 62
     0
100
AcDbLine
 10
0.0
 20
5.0
 30
0.0
 11
0.0
 21
14.5
 31
0.0
  0
LINE
  5
107
330
FF
100
AcDbEntity
  8
FORMAT
 62
     0
100
AcDbLine
 10
-5.0
 20
0.0
 30
0.0
 11
-14.5
 21
0.0
 31
0.0
  0
LINE
  5
108
330
FF
100
AcDbEntity
  8
FORMAT
 62
     0
100
AcDbLine
 10
0.0
 20
-5.0
 30
0.0
 11
0.0
 21
-14.5
 31
0.0
  0
LINE
  5
109
330
FF
100
AcDbEntity
  8
FORMAT
 62
     0
100
AcDbLine
 10
5.0
 20
0.0
 30
0.0
 11
14.5
 21
0.0
 31
0.0
  0
ENDBLK
  5
101
330
FF
100
AcDbEntity
  8
0
100
AcDbBlockEnd
  0
BLOCK
  5
10C
330
10B
100
AcDbEntity
  8
0
100
AcDbBlockBegin
  2
SW_CENTERMARKSYMBOL_9
 70
     0
 10
0.0
 20
0.0
 30
0.0
  3
SW_CENTERMARKSYMBOL_9
  1

  0
LINE
  5
10E
330
10B
100
AcDbEntity
  8
FORMAT
 62
     0
100
AcDbLine
 10
0.0
 20
0.0
 30
0.0
 11
0.0
 21
2.5
 31
0.0
  0
LINE
  5
10F
330
10B
100
AcDbEntity
  8
FORMAT
 62
     0
100
AcDbLine
 10
0.0
 20
0.0
 30
0.0
 11
-2.5
 21
0.0
 31
0.0
  0
LINE
  5
110
330
10B
100
AcDbEntity
  8
FORMAT
 62
     0
100
AcDbLine
 10
0.0
 20
0.0
 30
0.0
 11
0.0
 21
-2.5
 31
0.0
  0
LINE
  5
111
330
10B
100
AcDbEntity
  8
FORMAT
 62
     0
100
AcDbLine
 10
0.0
 20
0.0
 30
0.0
 11
2.5
 21
0.0
 31
0.0
  0
LINE
  5
112
330
10B
100
AcDbEntity
  8
FORMAT
 62
     0
100
AcDbLine
 10
0.0
 20
5.0
 30
0.0
 11
0.0
 21
14.5
 31
0.0
  0
LINE
  5
113
330
10B
100
AcDbEntity
  8
FORMAT
 62
     0
100
AcDbLine
 10
-5.0
 20
0.0
 30
0.0
 11
-14.5
 21
0.0
 31
0.0
  0
LINE
  5
114
330
10B
100
AcDbEntity
  8
FORMAT
 62
     0
100
AcDbLine
 10
0.0
 20
-5.0
 30
0.0
 11
0.0
 21
-14.5
 31
0.0
  0
LINE
  5
115
330
10B
100
AcDbEntity
  8
FORMAT
 62
     0
100
AcDbLine
 10
5.0
 20
0.0
 30
0.0
 11
14.5
 21
0.0
 31
0.0
  0
ENDBLK
  5
10D
330
10B
100
AcDbEntity
  8
0
100
AcDbBlockEnd
  0
BLOCK
  5
118
330
117
100
AcDbEntity
  8
0
100
AcDbBlockBegin
  2
SW_CENTERMARKSYMBOL_10
 70
     0
 10
0.0
 20
0.0
 30
0.0
  3
SW_CENTERMARKSYMBOL_10
  1

  0
LINE
  5
11A
330
117
100
AcDbEntity
  8
FORMAT
 62
     0
100
AcDbLine
 10
0.0
 20
0.0
 30
0.0
 11
0.0
 21
2.5
 31
0.0
  0
LINE
  5
11B
330
117
100
AcDbEntity
  8
FORMAT
 62
     0
100
AcDbLine
 10
0.0
 20
0.0
 30
0.0
 11
-2.5
 21
0.0
 31
0.0
  0
LINE
  5
11C
330
117
100
AcDbEntity
  8
FORMAT
 62
     0
100
AcDbLine
 10
0.0
 20
0.0
 30
0.0
 11
0.0
 21
-2.5
 31
0.0
  0
LINE
  5
11D
330
117
100
AcDbEntity
  8
FORMAT
 62
     0
100
AcDbLine
 10
0.0
 20
0.0
 30
0.0
 11
2.5
 21
0.0
 31
0.0
  0
LINE
  5
11E
330
117
100
AcDbEntity
  8
FORMAT
 62
     0
100
AcDbLine
 10
0.0
 20
5.0
 30
0.0
 11
0.0
 21
14.5
 31
0.0
  0
LINE
  5
11F
330
117
100
AcDbEntity
  8
FORMAT
 62
     0
100
AcDbLine
 10
-5.0
 20
0.0
 30
0.0
 11
-14.5
 21
0.0
 31
0.0
  0
LINE
  5
120
330
117
100
AcDbEntity
  8
FORMAT
 62
     0
100
AcDbLine
 10
0.0
 20
-5.0
 30
0.0
 11
0.0
 21
-14.5
 31
0.0
  0
LINE
  5
121
330
117
100
AcDbEntity
  8
FORMAT
 62
     0
100
AcDbLine
 10
5.0
 20
0.0
 30
0.0
 11
14.5
 21
0.0
 31
0.0
  0
ENDBLK
  5
119
330
117
100
AcDbEntity
  8
0
100
AcDbBlockEnd
  0
BLOCK
  5
124
330
123
100
AcDbEntity
  8
0
100
AcDbBlockBegin
  2
SW_CENTERMARKSYMBOL_11
 70
     0
 10
0.0
 20
0.0
 30
0.0
  3
SW_CENTERMARKSYMBOL_11
  1

  0
LINE
  5
126
330
123
100
AcDbEntity
  8
FORMAT
 62
     0
100
AcDbLine
 10
0.0
 20
0.0
 30
0.0
 11
0.0
 21
2.5
 31
0.0
  0
LINE
  5
127
330
123
100
AcDbEntity
  8
FORMAT
 62
     0
100
AcDbLine
 10
0.0
 20
0.0
 30
0.0
 11
-2.5
 21
0.0
 31
0.0
  0
LINE
  5
128
330
123
100
AcDbEntity
  8
FORMAT
 62
     0
100
AcDbLine
 10
0.0
 20
0.0
 30
0.0
 11
0.0
 21
-2.5
 31
0.0
  0
LINE
  5
129
330
123
100
AcDbEntity
  8
FORMAT
 62
     0
100
AcDbLine
 10
0.0
 20
0.0
 30
0.0
 11
2.5
 21
0.0
 31
0.0
  0
LINE
  5
12A
330
123
100
AcDbEntity
  8
FORMAT
 62
     0
100
AcDbLine
 10
0.0
 20
5.0
 30
0.0
 11
0.0
 21
14.5
 31
0.0
  0
LINE
  5
12B
330
123
100
AcDbEntity
  8
FORMAT
 62
     0
100
AcDbLine
 10
-5.0
 20
0.0
 30
0.0
 11
-14.5
 21
0.0
 31
0.0
  0
LINE
  5
12C
330
123
100
AcDbEntity
  8
FORMAT
 62
     0
100
AcDbLine
 10
0.0
 20
-5.0
 30
0.0
 11
0.0
 21
-14.5
 31
0.0
  0
LINE
  5
12D
330
123
100
AcDbEntity
  8
FORMAT
 62
     0
100
AcDbLine
 10
5.0
 20
0.0
 30
0.0
 11
14.5
 21
0.0
 31
0.0
  0
ENDBLK
  5
125
330
123
100
AcDbEntity
  8
0
100
AcDbBlockEnd
  0
BLOCK
  5
130
330
12F
100
AcDbEntity
  8
0
100
AcDbBlockBegin
  2
SW_CENTERMARKSYMBOL_12
 70
     0
 10
0.0
 20
0.0
 30
0.0
  3
SW_CENTERMARKSYMBOL_12
  1

  0
LINE
  5
132
330
12F
100
AcDbEntity
  8
FORMAT
 62
     0
100
AcDbLine
 10
0.0
 20
0.0
 30
0.0
 11
0.0
 21
2.5
 31
0.0
  0
LINE
  5
133
330
12F
100
AcDbEntity
  8
FORMAT
 62
     0
100
AcDbLine
 10
0.0
 20
0.0
 30
0.0
 11
-2.5
 21
0.0
 31
0.0
  0
LINE
  5
134
330
12F
100
AcDbEntity
  8
FORMAT
 62
     0
100
AcDbLine
 10
0.0
 20
0.0
 30
0.0
 11
0.0
 21
-2.5
 31
0.0
  0
LINE
  5
135
330
12F
100
AcDbEntity
  8
FORMAT
 62
     0
100
AcDbLine
 10
0.0
 20
0.0
 30
0.0
 11
2.5
 21
0.0
 31
0.0
  0
LINE
  5
136
330
12F
100
AcDbEntity
  8
FORMAT
 62
     0
100
AcDbLine
 10
0.0
 20
5.0
 30
0.0
 11
0.0
 21
14.5
 31
0.0
  0
LINE
  5
137
330
12F
100
AcDbEntity
  8
FORMAT
 62
     0
100
AcDbLine
 10
-5.0
 20
0.0
 30
0.0
 11
-14.5
 21
0.0
 31
0.0
  0
LINE
  5
138
330
12F
100
AcDbEntity
  8
FORMAT
 62
     0
100
AcDbLine
 10
0.0
 20
-5.0
 30
0.0
 11
0.0
 21
-14.5
 31
0.0
  0
LINE
  5
139
330
12F
100
AcDbEntity
  8
FORMAT
 62
     0
100
AcDbLine
 10
5.0
 20
0.0
 30
0.0
 11
14.5
 21
0.0
 31
0.0
  0
ENDBLK
  5
131
330
12F
100
AcDbEntity
  8
0
100
AcDbBlockEnd
  0
ENDSEC
  0
SECTION
  2
ENTITIES
  0
CIRCLE
  5
83
330
1F
100
AcDbEntity
  8
0
  6
Continuous
 62
     7
370
    25
100
AcDbCircle
 10
7.3718467622
 20
189.4409958732
 30
0.0
 40
11.99999999999998
  0
CIRCLE
  5
84
330
1F
100
AcDbEntity
  8
0
  6
Continuous
 62
     7
370
    25
100
AcDbCircle
 10
7.3718467622
 20
41.9409958732
 30
0.0
 40
11.99999999999998
  0
CIRCLE
  5
85
330
1F
100
AcDbEntity
  8
0
  6
Continuous
 62
     7
370
    25
100
AcDbCircle
 10
135.1105938204
 20
-31.8090041268
 30
0.0
 40
12.0
  0
CIRCLE
  5
86
330
1F
100
AcDbEntity
  8
0
  6
Continuous
 62
     7
370
    25
100
AcDbCircle
 10
282.6105938204
 20
115.6909958732
 30
0.0
 40
12.0
  0
CIRCLE
  5
87
330
1F
100
AcDbEntity
  8
0
  6
Continuous
 62
     7
370
    25
100
AcDbCircle
 10
208.8605938204
 20
243.4297429314
 30
0.0
 40
11.99999999999997
  0
CIRCLE
  5
88
330
1F
100
AcDbEntity
  8
0
  6
Continuous
 62
     7
370
    25
100
AcDbCircle
 10
135.1105938204
 20
263.1909958732
 30
0.0
 40
12.0
  0
CIRCLE
  5
89
330
1F
100
AcDbEntity
  8
0
  6
Continuous
 62
     7
370
    25
100
AcDbCircle
 10
135.1105938204
 20
115.6909958732
 30
0.0
 40
169.0
  0
CIRCLE
  5
8A
330
1F
100
AcDbEntity
  8
0
  6
Continuous
 62
     7
370
    25
100
AcDbCircle
 10
135.1105938204
 20
115.6909958732
 30
0.0
 40
120.0
  0
CIRCLE
  5
8B
330
1F
100
AcDbEntity
  8
0
  6
Continuous
 62
     7
370
    25
100
AcDbCircle
 10
262.8493408786
 20
41.9409958732
 30
0.0
 40
12.0
  0
CIRCLE
  5
8C
330
1F
100
AcDbEntity
  8
0
  6
Continuous
 62
     7
370
    25
100
AcDbCircle
 10
262.8493408786
 20
189.4409958732
 30
0.0
 40
12.0
  0
CIRCLE
  5
8D
330
1F
100
AcDbEntity
  8
0
  6
Continuous
 62
     7
370
    25
100
AcDbCircle
 10
208.8605938204
 20
-12.047751185
 30
0.0
 40
11.99999999999997
  0
CIRCLE
  5
8E
330
1F
100
AcDbEntity
  8
0
  6
Continuous
 62
     7
370
    25
100
AcDbCircle
 10
61.3605938204
 20
-12.047751185
 30
0.0
 40
12.0
  0
CIRCLE
  5
8F
330
1F
100
AcDbEntity
  8
0
  6
Continuous
 62
     7
370
    25
100
AcDbCircle
 10
-12.3894061796
 20
115.6909958732
 30
0.0
 40
12.00000000000001
  0
CIRCLE
  5
90
330
1F
100
AcDbEntity
  8
0
  6
Continuous
 62
     7
370
    25
100
AcDbCircle
 10
61.3605938204
 20
243.4297429314
 30
0.0
 40
12.0
  0
CIRCLE
  5
91
330
1F
100
AcDbEntity
  8
0
  6
Continuous
 62
     7
370
    25
100
AcDbCircle
 10
262.8493408786
 20
189.4409958732
 30
0.0
 40
11.0
  0
CIRCLE
  5
92
330
1F
100
AcDbEntity
  8
0
  6
Continuous
 62
     7
370
    25
100
AcDbCircle
 10
262.8493408786
 20
41.9409958732
 30
0.0
 40
11.0
  0
CIRCLE
  5
93
330
1F
100
AcDbEntity
  8
0
  6
Continuous
 62
     7
370
    25
100
AcDbCircle
 10
135.1105938204
 20
115.6909958732
 30
0.0
 40
119.0
  0
CIRCLE
  5
94
330
1F
100
AcDbEntity
  8
0
  6
Continuous
 62
     7
370
    25
100
AcDbCircle
 10
135.1105938204
 20
115.6909958732
 30
0.0
 40
170.0
  0
CIRCLE
  5
95
330
1F
100
AcDbEntity
  8
0
  6
Continuous
 62
     7
370
    25
100
AcDbCircle
 10
135.1105938204
 20
263.1909958732
 30
0.0
 40
11.0
  0
CIRCLE
  5
96
330
1F
100
AcDbEntity
  8
0
  6
Continuous
 62
     7
370
    25
100
AcDbCircle
 10
208.8605938204
 20
243.4297429314
 30
0.0
 40
10.99999999999997
  0
CIRCLE
  5
97
330
1F
100
AcDbEntity
  8
0
  6
Continuous
 62
     7
370
    25
100
AcDbCircle
 10
282.6105938204
 20
115.6909958732
 30
0.0
 40
11.0
  0
CIRCLE
  5
98
330
1F
100
AcDbEntity
  8
0
  6
Continuous
 62
     7
370
    25
100
AcDbCircle
 10
61.3605938204
 20
243.4297429314
 30
0.0
 40
11.0
  0
CIRCLE
  5
99
330
1F
100
AcDbEntity
  8
0
  6
Continuous
 62
     7
370
    25
100
AcDbCircle
 10
-12.3894061796
 20
115.6909958732
 30
0.0
 40
11.00000000000001
  0
CIRCLE
  5
9A
330
1F
100
AcDbEntity
  8
0
  6
Continuous
 62
     7
370
    25
100
AcDbCircle
 10
61.3605938204
 20
-12.047751185
 30
0.0
 40
11.0
  0
CIRCLE
  5
9B
330
1F
100
AcDbEntity
  8
0
  6
Continuous
 62
     7
370
    25
100
AcDbCircle
 10
208.8605938204
 20
-12.047751185
 30
0.0
 40
11.0
  0
CIRCLE
  5
9C
330
1F
100
AcDbEntity
  8
0
  6
Continuous
 62
     7
370
    25
100
AcDbCircle
 10
135.1105938204
 20
-31.8090041268
 30
0.0
 40
11.0
  0
CIRCLE
  5
9D
330
1F
100
AcDbEntity
  8
0
  6
Continuous
 62
     7
370
    25
100
AcDbCircle
 10
7.3718467622
 20
41.9409958732
 30
0.0
 40
10.99999999999999
  0
CIRCLE
  5
9E
330
1F
100
AcDbEntity
  8
0
  6
Continuous
 62
     7
370
    25
100
AcDbCircle
 10
7.3718467622
 20
189.4409958732
 30
0.0
 40
10.99999999999998
  0
INSERT
  5
AA
330
1F
100
AcDbEntity
  8
FORMAT
 62
     7
100
AcDbBlockReference
  2
SW_CENTERMARKSYMBOL_0
 10
135.1105938204
 20
115.6909958732
 30
0.0
  0
INSERT
  5
B6
330
1F
100
AcDbEntity
  8
FORMAT
 62
     7
100
AcDbBlockReference
  2
SW_CENTERMARKSYMBOL_1
 10
135.1105938204
 20
263.1909958732
 30
0.0
  0
INSERT
  5
C2
330
1F
100
AcDbEntity
  8
FORMAT
 62
     7
100
AcDbBlockReference
  2
SW_CENTERMARKSYMBOL_2
 10
208.8605938204
 20
243.4297429314
 30
0.0
  0
INSERT
  5
CE
330
1F
100
AcDbEntity
  8
FORMAT
 62
     7
100
AcDbBlockReference
  2
SW_CENTERMARKSYMBOL_3
 10
262.8493408786
 20
189.4409958732
 30
0.0
  0
INSERT
  5
DA
330
1F
100
AcDbEntity
  8
FORMAT
 62
     7
100
AcDbBlockReference
  2
SW_CENTERMARKSYMBOL_4
 10
282.6105938204
 20
115.6909958732
 30
0.0
  0
INSERT
  5
E6
330
1F
100
AcDbEntity
  8
FORMAT
 62
     7
100
AcDbBlockReference
  2
SW_CENTERMARKSYMBOL_5
 10
61.3605938204
 20
-12.047751185
 30
0.0
  0
INSERT
  5
F2
330
1F
100
AcDbEntity
  8
FORMAT
 62
     7
100
AcDbBlockReference
  2
SW_CENTERMARKSYMBOL_6
 10
135.1105938204
 20
-31.8090041268
 30
0.0
  0
INSERT
  5
FE
330
1F
100
AcDbEntity
  8
FORMAT
 62
     7
100
AcDbBlockReference
  2
SW_CENTERMARKSYMBOL_7
 10
208.8605938204
 20
-12.047751185
 30
0.0
  0
INSERT
  5
10A
330
1F
100
AcDbEntity
  8
FORMAT
 62
     7
100
AcDbBlockReference
  2
SW_CENTERMARKSYMBOL_8
 10
61.3605938204
 20
243.4297429314
 30
0.0
  0
INSERT
  5
116
330
1F
100
AcDbEntity
  8
FORMAT
 62
     7
100
AcDbBlockReference
  2
SW_CENTERMARKSYMBOL_9
 10
7.3718467622
 20
189.4409958732
 30
0.0
  0
INSERT
  5
122
330
1F
100
AcDbEntity
  8
FORMAT
 62
     7
100
AcDbBlockReference
  2
SW_CENTERMARKSYMBOL_10
 10
-12.3894061796
 20
115.6909958732
 30
0.0
  0
INSERT
  5
12E
330
1F
100
AcDbEntity
  8
FORMAT
 62
     7
100
AcDbBlockReference
  2
SW_CENTERMARKSYMBOL_11
 10
7.3718467622
 20
41.9409958732
 30
0.0
  0
INSERT
  5
13A
330
1F
100
AcDbEntity
  8
FORMAT
 62
     7
100
AcDbBlockReference
  2
SW_CENTERMARKSYMBOL_12
 10
262.8493408786
 20
41.9409958732
 30
0.0
  0
LINE
  5
13B
330
1F
100
AcDbEntity
  8
0
  6
Continuous
 62
     7
370
    25
100
AcDbLine
 10
-169.6392449454
 20
285.6909958732
 30
0.0
 11
-194.6392449454
 21
285.6909958732
 31
0.0
  0
LINE
  5
13C
330
1F
100
AcDbEntity
  8
0
  6
Continuous
 62
     7
370
    25
100
AcDbLine
 10
-194.6392449454
 20
-54.3090041268
 30
0.0
 11
-169.6392449454
 21
-54.3090041268
 31
0.0
  0
ARC
  5
13D
330
1F
100
AcDbEntity
  8
0
  6
Continuous
 62
     7
370
    25
100
AcDbCircle
 10
-169.6392449454
 20
-53.3090041268
 30
0.0
 40
1.0
100
AcDbArc
 50
270.0
 51
0.0
  0
ARC
  5
13E
330
1F
100
AcDbEntity
  8
0
  6
Continuous
 62
     7
370
    25
100
AcDbCircle
 10
-169.6392449454
 20
284.6909958732
 30
0.0
 40
1.0
100
AcDbArc
 50
0.0
 51
90.0
  0
ARC
  5
13F
330
1F
100
AcDbEntity
  8
0
  6
Continuous
 62
     7
370
    25
100
AcDbCircle
 10
-194.6392449454
 20
-53.3090041268
 30
0.0
 40
1.0
100
AcDbArc
 50
180.0
 51
270.0
  0
ARC
  5
140
330
1F
100
AcDbEntity
  8
0
  6
Continuous
 62
     7
370
    25
100
AcDbCircle
 10
-194.6392449454
 20
284.6909958732
 30
0.0
 40
1.0
100
AcDbArc
 50
90.0
 51
180.0
  0
LINE
  5
141
330
1F
100
AcDbEntity
  8
0
  6
Continuous
 62
     7
370
    25
100
AcDbLine
 10
-168.6392449454
 20
115.6909958732
 30
0.0
 11
-168.6392449454
 21
-53.3090041268
 31
0.0
  0
LINE
  5
142
330
1F
100
AcDbEntity
  8
0
  6
Continuous
 62
     7
370
    25
100
AcDbLine
 10
-168.6392449454
 20
284.6909958732
 30
0.0
 11
-168.6392449454
 21
115.6909958732
 31
0.0
  0
LINE
  5
143
330
1F
100
AcDbEntity
  8
0
  6
Continuous
 62
     7
370
    25
100
AcDbLine
 10
-195.6392449454
 20
115.6909958732
 30
0.0
 11
-195.6392449454
 21
284.6909958732
 31
0.0
  0
LINE
  5
144
330
1F
100
AcDbEntity
  8
0
  6
Continuous
 62
     7
370
    25
100
AcDbLine
 10
-195.6392449454
 20
-53.3090041268
 30
0.0
 11
-195.6392449454
 21
115.6909958732
 31
0.0
  0
LINE
  5
145
330
1F
100
AcDbEntity
  8
0
  6
Continuous
 62
     1
370
    25
100
AcDbLine
 10
-194.6392449454
 20
115.6909958732
 30
0.0
 11
-194.6392449454
 21
-54.3090041268
 31
0.0
  0
LINE
  5
146
330
1F
100
AcDbEntity
  8
0
  6
Continuous
 62
     1
370
    25
100
AcDbLine
 10
-194.6392449454
 20
285.6909958732
 30
0.0
 11
-194.6392449454
 21
115.6909958732
 31
0.0
  0
LINE
  5
147
330
1F
100
AcDbEntity
  8
0
  6
Continuous
 62
     1
370
    25
100
AcDbLine
 10
-169.6392449454
 20
115.6909958732
 30
0.0
 11
-169.6392449454
 21
285.6909958732
 31
0.0
  0
LINE
  5
148
330
1F
100
AcDbEntity
  8
0
  6
Continuous
 62
     1
370
    25
100
AcDbLine
 10
-169.6392449454
 20
-54.3090041268
 30
0.0
 11
-169.6392449454
 21
115.6909958732
 31
0.0
  0
LINE
  5
149
330
1F
100
AcDbEntity
  8
0
  6
Continuous
 62
     7
370
    25
100
AcDbLine
 10
426.5918386675
 20
-54.3090041268
 30
0.0
 11
451.5918386675
 21
-54.3090041268
 31
0.0
  0
LINE
  5
14A
330
1F
100
AcDbEntity
  8
0
  6
Continuous
 62
     7
370
    25
100
AcDbLine
 10
451.5918386675
 20
285.6909958732
 30
0.0
 11
426.5918386675
 21
285.6909958732
 31
0.0
  0
ARC
  5
14B
330
1F
100
AcDbEntity
  8
0
  6
Continuous
 62
     7
370
    25
100
AcDbCircle
 10
426.5918386675
 20
284.6909958732
 30
0.0
 40
1.0
100
AcDbArc
 50
90.0
 51
180.0
  0
ARC
  5
14C
330
1F
100
AcDbEntity
  8
0
  6
Continuous
 62
     7
370
    25
100
AcDbCircle
 10
426.5918386675
 20
-53.3090041268
 30
0.0
 40
1.0
100
AcDbArc
 50
180.0
 51
270.0
  0
ARC
  5
14D
330
1F
100
AcDbEntity
  8
0
  6
Continuous
 62
     7
370
    25
100
AcDbCircle
 10
451.5918386675
 20
284.6909958732
 30
0.0
 40
1.0
100
AcDbArc
 50
0.0
 51
90.0
  0
ARC
  5
14E
330
1F
100
AcDbEntity
  8
0
  6
Continuous
 62
     7
370
    25
100
AcDbCircle
 10
451.5918386675
 20
-53.3090041268
 30
0.0
 40
1.0
100
AcDbArc
 50
270.0
 51
0.0
  0
LINE
  5
14F
330
1F
100
AcDbEntity
  8
0
  6
Continuous
 62
     7
370
    25
100
AcDbLine
 10
425.5918386675
 20
-53.3090041268
 30
0.0
 11
425.5918386675
 21
284.6909958732
 31
0.0
  0
LINE
  5
150
330
1F
100
AcDbEntity
  8
0
  6
Continuous
 62
     7
370
    25
100
AcDbLine
 10
452.5918386675
 20
284.6909958732
 30
0.0
 11
452.5918386675
 21
-53.3090041268
 31
0.0
  0
LINE
  5
151
330
1F
100
AcDbEntity
  8
0
  6
Continuous
 62
     1
370
    25
100
AcDbLine
 10
451.5918386675
 20
-54.3090041268
 30
0.0
 11
451.5918386675
 21
285.6909958732
 31
0.0
  0
LINE
  5
152
330
1F
100
AcDbEntity
  8
0
  6
Continuous
 62
     1
370
    25
100
AcDbLine
 10
426.5918386675
 20
285.6909958732
 30
0.0
 11
426.5918386675
 21
-54.3090041268
 31
0.0
  0
LINE
  5
153
330
1F
100
AcDbEntity
  8
0
  6
Continuous
 62
     7
370
    25
100
AcDbLine
 10
305.1105938204
 20
364.9758561294
 30
0.0
 11
305.1105938204
 21
389.9758561294
 31
0.0
  0
LINE
  5
154
330
1F
100
AcDbEntity
  8
0
  6
Continuous
 62
     7
370
    25
100
AcDbLine
 10
-34.8894061796
 20
389.9758561294
 30
0.0
 11
-34.8894061796
 21
364.9758561294
 31
0.0
  0
ARC
  5
155
330
1F
100
AcDbEntity
  8
0
  6
Continuous
 62
     7
370
    25
100
AcDbCircle
 10
-33.8894061796
 20
364.9758561294
 30
0.0
 40
1.000000000000007
100
AcDbArc
 50
180.0
 51
270.0
  0
ARC
  5
156
330
1F
100
AcDbEntity
  8
0
  6
Continuous
 62
     7
370
    25
100
AcDbCircle
 10
304.1105938204
 20
364.9758561294
 30
0.0
 40
1.0
100
AcDbArc
 50
270.0
 51
0.0
  0
ARC
  5
157
330
1F
100
AcDbEntity
  8
0
  6
Continuous
 62
     7
370
    25
100
AcDbCircle
 10
-33.8894061796
 20
389.9758561294
 30
0.0
 40
1.000000000000007
100
AcDbArc
 50
90.0
 51
180.0
  0
ARC
  5
158
330
1F
100
AcDbEntity
  8
0
  6
Continuous
 62
     7
370
    25
100
AcDbCircle
 10
304.1105938204
 20
389.9758561294
 30
0.0
 40
1.0
100
AcDbArc
 50
0.0
 51
90.0
  0
LINE
  5
159
330
1F
100
AcDbEntity
  8
0
  6
Continuous
 62
     7
370
    25
100
AcDbLine
 10
304.1105938204
 20
363.9758561294
 30
0.0
 11
-33.8894061796
 21
363.9758561294
 31
0.0
  0
LINE
  5
15A
330
1F
100
AcDbEntity
  8
0
  6
Continuous
 62
     7
370
    25
100
AcDbLine
 10
-33.8894061788
 20
390.9758561294
 30
0.0
 11
304.1105938204
 21
390.9758561294
 31
0.0
  0
LINE
  5
15B
330
1F
100
AcDbEntity
  8
0
  6
Continuous
 62
     1
370
    25
100
AcDbLine
 10
305.1105938204
 20
389.9758561294
 30
0.0
 11
-34.8894061796
 21
389.9758561294
 31
0.0
  0
LINE
  5
15C
330
1F
100
AcDbEntity
  8
0
  6
Continuous
 62
     1
370
    25
100
AcDbLine
 10
-34.8894061796
 20
364.9758561294
 30
0.0
 11
305.1105938204
 21
364.9758561294
 31
0.0
  0
LINE
  5
15D
330
1F
100
AcDbEntity
  8
0
  6
Continuous
 62
     7
370
    25
100
AcDbLine
 10
-34.8894061796
 20
-218.3654914515
 30
0.0
 11
-34.8894061796
 21
-243.3654914515
 31
0.0
  0
LINE
  5
15E
330
1F
100
AcDbEntity
  8
0
  6
Continuous
 62
     7
370
    25
100
AcDbLine
 10
305.1105938204
 20
-243.3654914515
 30
0.0
 11
305.1105938204
 21
-218.3654914515
 31
0.0
  0
ARC
  5
15F
330
1F
100
AcDbEntity
  8
0
  6
Continuous
 62
     7
370
    25
100
AcDbCircle
 10
304.1105938204
 20
-218.3654914515
 30
0.0
 40
1.0
100
AcDbArc
 50
0.0
 51
90.0
  0
ARC
  5
160
330
1F
100
AcDbEntity
  8
0
  6
Continuous
 62
     7
370
    25
100
AcDbCircle
 10
-33.8894061796
 20
-218.3654914515
 30
0.0
 40
1.000000000000007
100
AcDbArc
 50
90.0
 51
180.0
  0
ARC
  5
161
330
1F
100
AcDbEntity
  8
0
  6
Continuous
 62
     7
370
    25
100
AcDbCircle
 10
304.1105938204
 20
-243.3654914515
 30
0.0
 40
1.0
100
AcDbArc
 50
270.0
 51
0.0
  0
ARC
  5
162
330
1F
100
AcDbEntity
  8
0
  6
Continuous
 62
     7
370
    25
100
AcDbCircle
 10
-33.8894061796
 20
-243.3654914515
 30
0.0
 40
1.000000000000007
100
AcDbArc
 50
180.0
 51
270.0
  0
LINE
  5
163
330
1F
100
AcDbEntity
  8
0
  6
Continuous
 62
     7
370
    25
100
AcDbLine
 10
-33.8894061788
 20
-217.3654914515
 30
0.0
 11
304.1105938204
 21
-217.3654914515
 31
0.0
  0
LINE
  5
164
330
1F
100
AcDbEntity
  8
0
  6
Continuous
 62
     7
370
    25
100
AcDbLine
 10
304.1105938204
 20
-244.3654914515
 30
0.0
 11
-33.8894061796
 21
-244.3654914515
 31
0.0
  0
LINE
  5
165
330
1F
100
AcDbEntity
  8
0
  6
Continuous
 62
     1
370
    25
100
AcDbLine
 10
-34.8894061796
 20
-243.3654914515
 30
0.0
 11
305.1105938204
 21
-243.3654914515
 31
0.0
  0
LINE
  5
166
330
1F
100
AcDbEntity
  8
0
  6
Continuous
 62
     1
370
    25
100
AcDbLine
 10
305.1105938204
 20
-218.3654914515
 30
0.0
 11
-34.8894061796
 21
-218.3654914515
 31
0.0
  0
SPLINE
  5
167
330
1F
100
AcDbEntity
  8
0
  6
Continuous
 62
     7
370
    25
100
AcDbSpline
210
0.0
220
0.0
230
1.0
 70
     8
 71
     3
 72
    71
 73
    67
 74
     0
 42
0.00000001
 43
0.00000001
 40
0.0
 40
0.0
 40
0.0
 40
0.0
 40
0.0128841316962945
 40
0.0285943272894662
 40
0.0443151279437798
 40
0.0600458382602922
 40
0.0757854042863428
 40
0.0915325698491705
 40
0.1072860095295989
 40
0.1230444296909944
 40
0.1388066366411768
 40
0.1545715758835429
 40
0.1703383486847314
 40
0.1861062125489204
 40
0.2018745714327596
 40
0.2176428575960255
 40
0.2334107267632319
 40
0.2491779505803218
 40
0.2649443738546173
 40
0.2807099002598193
 40
0.2964744801422406
 40
0.3122381003615646
 40
0.3280007759854298
 40
0.3437625436060021
 40
0.3595234560357272
 40
0.3752835781513302
 40
0.3910429836783296
 40
0.4068017527358442
 40
0.4225599699890119
 40
0.4383177232818122
 40
0.4540751026453756
 40
0.4698321995955429
 40
0.4855891066488006
 40
0.5013459169976201
 40
0.5171027242953512
 40
0.5328596027733753
 40
0.5486166350352061
 40
0.5643739153595594
 40
0.5801315379634212
 40
0.5958895967566051
 40
0.6116481849734221
 40
0.6274073946267085
 40
0.6431673157209935
 40
0.6589280351482576
 40
0.6746896351729196
 40
0.6904521913923686
 40
0.7062157700351605
 40
0.7219804244318025
 40
0.7377461904637841
 40
0.7535130807679595
 40
0.7692810774503505
 40
0.7850501230539435
 40
0.8008201095420104
 40
0.8165908651216606
 40
0.8323621388694803
 40
0.8481335167270878
 40
0.8639044215621955
 40
0.879674208942087
 40
0.895442079086859
 40
0.9112070679751588
 40
0.9269680501281126
 40
0.9427237593325207
 40
0.9584728342015538
 40
0.9742138947626747
 40
0.9899456533775794
 40
0.9999999999999999
 40
0.9999999999999999
 40
0.9999999999999999
 40
0.9999999999999999
 10
567.4569647687305
 20
-47.11921585204598
 30
0.0
 10
566.2686954312544
 20
-46.99182211890246
 30
0.0
 10
563.6315163690753
 20
-46.70909153324873
 30
0.0
 10
559.4237331958753
 20
-46.59683532010916
 30
0.0
 10
554.8658884636252
 20
-46.71987165378253
 30
0.0
 10
550.2189963923902
 20
-47.1223998261848
 30
0.0
 10
545.4951397688046
 20
-47.79388039725352
 30
0.0
 10
540.7017029647527
 20
-48.73587448252989
 30
0.0
 10
535.8475131138414
 20
-49.94602919077643
 30
0.0
 10
530.9411474264211
 20
-51.42238206467642
 30
0.0
 10
525.9913477148746
 20
-53.16222333304466
 30
0.0
 10
521.0068769457439
 20
-55.16242099656038
 30
0.0
 10
515.9965318252955
 20
-57.41935473889731
 30
0.0
 10
510.9691186789967
 20
-59.92895411644744
 30
0.0
 10
505.9334537170978
 20
-62.68670141164559
 30
0.0
 10
500.8983392713101
 20
-65.68765079950906
 30
0.0
 10
495.8725507919667
 20
-68.92644208144335
 30
0.0
 10
490.8648158721251
 20
-72.39732114102745
 30
0.0
 10
485.8838158284336
 20
-76.09414454636676
 30
0.0
 10
480.9381772023364
 20
-80.01038845833538
 30
0.0
 10
476.0364599183114
 20
-84.13915936915501
 30
0.0
 10
471.1871449563021
 20
-88.4732051877437
 30
0.0
 10
466.3986216162328
 20
-93.00492680048391
 30
0.0
 10
461.6791744684542
 20
-97.72639019554572
 30
0.0
 10
457.0369700895237
 20
-102.6293392015993
 30
0.0
 10
452.4800436801799
 20
-107.7052088643174
 30
0.0
 10
448.0162856558723
 20
-112.9451394633549
 30
0.0
 10
443.6534282918773
 20
-118.3399911575812
 30
0.0
 10
439.3990324963152
 20
-123.8803592357763
 30
0.0
 10
435.2604747760561
 20
-129.5565899426973
 30
0.0
 10
431.2449344529757
 20
-135.3587968454363
 30
0.0
 10
427.3593811814541
 20
-141.2768777016128
 30
0.0
 10
423.610562812339
 20
-147.3005317887415
 30
0.0
 10
420.0049936440481
 20
-153.4192776521082
 30
0.0
 10
416.5489445395185
 20
-159.62246863908
 30
0.0
 10
413.2484311303486
 20
-165.8993122675519
 30
0.0
 10
410.1092024123664
 20
-172.2388905031427
 30
0.0
 10
407.1367296995806
 20
-178.6301815302593
 30
0.0
 10
404.336198107882
 20
-185.0620779557439
 30
0.0
 10
401.7124986040872
 20
-191.5234045888248
 30
0.0
 10
399.2702198314424
 20
-198.0029378467174
 30
0.0
 10
397.0136405379593
 20
-204.4894251940449
 30
0.0
 10
394.9467226230918
 20
-210.9716045561878
 30
0.0
 10
393.0731048137862
 20
-217.4382236427161
 30
0.0
 10
391.3960969753114
 20
-223.8780591120305
 30
0.0
 10
389.9186750547759
 20
-230.2799355027565
 30
0.0
 10
388.643476645208
 20
-236.6327438515277
 30
0.0
 10
387.5727971447763
 20
-242.9254599109535
 30
0.0
 10
386.7085864681281
 20
-249.1471618768243
 30
0.0
 10
386.0524462444459
 20
-255.2870475306438
 30
0.0
 10
385.6056274069519
 20
-261.3344507068282
 30
0.0
 10
385.3690280475577
 20
-267.2788569977644
 30
0.0
 10
385.3431913527629
 20
-273.1099186510757
 30
0.0
 10
385.5283034502826
 20
-278.8174685769379
 30
0.0
 10
385.9241901699471
 20
-284.3915258756625
 30
0.0
 10
386.5303119450184
 20
-289.8223035168429
 30
0.0
 10
387.3457564030246
 20
-295.100232076921
 30
0.0
 10
388.3692391784564
 20
-300.2159726289919
 30
0.0
 10
389.5990776885695
 20
-305.1604607796195
 30
0.0
 10
391.03326085316
 20
-309.9248157754312
 30
0.0
 10
392.6691456168417
 20
-314.5007269302772
 30
0.0
 10
394.5045477805723
 20
-318.8791059366826
 30
0.0
 10
396.5336366272208
 20
-323.0552279563276
 30
0.0
 10
398.7622237383565
 20
-327.0096949557214
 30
0.0
 10
400.8639397137708
 20
-330.3268988015691
 30
0.0
 10
402.2986122264345
 20
-332.2281666631625
 30
0.0
 10
402.8580101889892
 20
-332.9694963803335
 30
0.0
  0
LINE
  5
168
330
1F
100
AcDbEntity
  8
0
  6
Continuous
 62
     7
370
    25
100
AcDbLine
 10
608.5351224807
 20
-64.8924809784
 30
0.0
 11
590.857452951
 21
-54.6873795806
 31
0.0
  0
LINE
  5
169
330
1F
100
AcDbEntity
  8
0
  6
Continuous
 62
     7
370
    25
100
AcDbLine
 10
420.8712684029
 20
-349.14399279
 30
0.0
 11
438.5489379326
 21
-359.3490941878
 31
0.0
  0
SPLINE
  5
16A
330
1F
100
AcDbEntity
  8
0
  6
Continuous
 62
     7
370
    25
100
AcDbSpline
210
0.0
220
0.0
230
1.0
 70
     8
 71
     3
 72
    58
 73
    54
 74
     0
 42
0.00000001
 43
0.00000001
 40
0.0
 40
0.0
 40
0.0
 40
0.0
 40
0.0151222661761899
 40
0.034847720774948
 40
0.054586571124692
 40
0.0743380285681053
 40
0.0941008237263627
 40
0.1138734055289237
 40
0.1336541135110705
 40
0.15344131091432
 40
0.1732334762125366
 40
0.1930292573434944
 40
0.212827496217702
 40
0.2326272318237477
 40
0.2524276894517231
 40
0.2722281543351935
 40
0.2920281473280091
 40
0.3118273663235048
 40
0.331625603975954
 40
0.3514227293630136
 40
0.3712186722819433
 40
0.3910134101243415
 40
0.4108069571181782
 40
0.4305993556516762
 40
0.4503906693739717
 40
0.4701809777791799
 40
0.4899703720081455
 40
0.5097589516363372
 40
0.5295468222511541
 40
0.5493340936543724
 40
0.5691208785540689
 40
0.5889072916346019
 40
0.6086934489129525
 40
0.6284794673054859
 40
0.6482654643409727
 40
0.6680515390325182
 40
0.6878377892255526
 40
0.7076243332985289
 40
0.7274112895890182
 40
0.7471987761028426
 40
0.7669869100787815
 40
0.7867758073408587
 40
0.8065655813609408
 40
0.8263563419382853
 40
0.8461481933822399
 40
0.8659412320594164
 40
0.8857355431370009
 40
0.9055311963202226
 40
0.925328240345434
 40
0.9451266959539946
 40
0.9649265470417077
 40
0.9847277296631601
 40
1.0
 40
1.0
 40
1.0
 40
1.0
 10
461.53925778296
 20
-366.8641031813029
 30
0.0
 10
462.6461182550422
 20
-366.9930252205421
 30
0.0
 10
465.1967653748949
 20
-367.2901129171082
 30
0.0
 10
469.3122519200002
 20
-367.4350859489771
 30
0.0
 10
473.8563162300403
 20
-367.3531860212589
 30
0.0
 10
478.4910055644963
 20
-366.9908600978133
 30
0.0
 10
483.2037984753953
 20
-366.3597013363719
 30
0.0
 10
487.9874596282236
 20
-365.4577662435813
 30
0.0
 10
492.8331460736603
 20
-364.2874111582473
 30
0.0
 10
497.7323025576066
 20
-362.85050046211
 30
0.0
 10
502.676193685568
 20
-361.149675827101
 30
0.0
 10
507.6560627018455
 20
-359.1879962122476
 30
0.0
 10
512.6631156776624
 20
-356.9690133441346
 30
0.0
 10
517.6885471639423
 20
-354.4967308531279
 30
0.0
 10
522.7235417621226
 20
-351.7756008504758
 30
0.0
 10
527.7592940224295
 20
-348.8105064196109
 30
0.0
 10
532.787023849761
 20
-345.6067469066687
 30
0.0
 10
537.7979957253564
 20
-342.170018739561
 30
0.0
 10
542.7835211627458
 20
-338.5064078470879
 30
0.0
 10
547.7349647336725
 20
-334.6223821441262
 30
0.0
 10
552.643755832607
 20
-330.5247808302493
 30
0.0
 10
557.5014009365054
 20
-326.2208033650223
 30
0.0
 10
562.2994962852433
 20
-321.7179979846204
 30
0.0
 10
567.0297408907285
 20
-317.0242496653261
 30
0.0
 10
571.6839497754305
 20
-312.1477674783021
 30
0.0
 10
576.2540673427891
 20
-307.0970713085782
 30
0.0
 10
580.7321807880077
 20
-301.8809779328964
 30
0.0
 10
585.1105334659103
 20
-296.5085864667236
 30
0.0
 10
589.3815381412638
 20
-290.9892632018775
 30
0.0
 10
593.5377900553812
 20
-285.3326258639461
 30
0.0
 10
597.5720797504831
 20
-279.5485273239463
 30
0.0
 10
601.4774056000131
 20
-273.6470388022632
 30
0.0
 10
605.2469859988884
 20
-267.6384326052545
 30
0.0
 10
608.8742711724167
 20
-261.5331644368758
 30
0.0
 10
612.3529534576853
 20
-255.34185730269
 30
0.0
 10
615.676978432707
 20
-249.0752833869977
 30
0.0
 10
618.8405567899871
 20
-242.744343247527
 30
0.0
 10
621.8381752047947
 20
-236.3600447107339
 30
0.0
 10
624.6646055310248
 20
-229.9334834294945
 30
0.0
 10
627.3149125079831
 20
-223.4758257333988
 30
0.0
 10
629.7844620091336
 20
-216.9982892411167
 30
0.0
 10
632.0689287562501
 20
-210.5121233925303
 30
0.0
 10
634.1643031725873
 20
-204.0285901385788
 30
0.0
 10
636.0668985211606
 20
-197.558944185938
 30
0.0
 10
637.7733540004376
 20
-191.1144153503914
 30
0.0
 10
639.2806499270425
 20
-184.7061838147704
 30
0.0
 10
640.5860748172465
 20
-178.3453829988842
 30
0.0
 10
641.687369076199
 20
-172.0430008813496
 30
0.0
 10
642.5822067125697
 20
-165.8101622624813
 30
0.0
 10
643.2701452460243
 20
-159.6569915385605
 30
0.0
 10
643.7453609561662
 20
-153.5967764302045
 30
0.0
 10
644.0025435043137
 20
-148.0853505389061
 30
0.0
 10
644.0307807100836
 20
-144.636192359108
 30
0.0
 10
644.0430762271684
 20
-143.1343021340697
 30
0.0
  0
SPLINE
  5
16B
330
1F
100
AcDbEntity
  8
0
  6
Continuous
 62
     7
370
    25
100
AcDbSpline
210
0.0
220
0.0
230
1.0
 70
     8
 71
     3
 72
    21
 73
    17
 74
     0
 42
0.00000001
 43
0.00000001
 40
0.0
 40
0.0
 40
0.0
 40
0.0
 40
0.0410062105683129
 40
0.118896943469268
 40
0.1967949315769574
 40
0.274693013875646
 40
0.3525883320597652
 40
0.4304775932720528
 40
0.5083567282200868
 40
0.5862208540940754
 40
0.6640642994145829
 40
0.7418807224753993
 40
0.819663357447956
 40
0.8974054173804256
 40
0.9751006671427029
 40
1.0
 40
1.0
 40
1.0
 40
1.0
 10
644.0430762271684
 20
-143.1343021340697
 30
0.0
 10
644.0371967245281
 20
-142.1172311789515
 30
0.0
 10
644.0201491875002
 20
-139.1682479352188
 30
0.0
 10
643.8307341459808
 20
-134.3818386960507
 30
0.0
 10
643.405790595019
 20
-128.8273546405814
 30
0.0
 10
642.7678527257655
 20
-123.4190525229645
 30
0.0
 10
641.9215273705595
 20
-118.1645798452074
 30
0.0
 10
640.8671801435747
 20
-113.0737782367156
 30
0.0
 10
639.6068214700068
 20
-108.155518246391
 30
0.0
 10
638.1424152469905
 20
-103.4187239790421
 30
0.0
 10
636.4768187860533
 20
-98.87148358008004
 30
0.0
 10
634.6117676373512
 20
-94.5234697988813
 30
0.0
 10
632.5550387885435
 20
-90.37700844719994
 30
0.0
 10
630.2938589613216
 20
-86.46019019636833
 30
0.0
 10
628.4370899799784
 20
-83.55341128049123
 30
0.0
 10
627.2744399554629
 20
-82.03079195542612
 30
0.0
 10
626.9922690140954
 20
-81.6612577712448
 30
0.0
  0
SPLINE
  5
16C
330
1F
100
AcDbEntity
  8
0
  6
Continuous
 62
     7
370
    25
100
AcDbSpline
210
0.0
220
0.0
230
1.0
 70
     8
 71
     3
 72
    20
 73
    16
 74
     0
 42
0.00000001
 43
0.00000001
 40
0.0
 40
0.0
 40
0.0
 40
0.0
 40
0.0164950087589358
 40
0.1027646229227048
 40
0.1889285003408362
 40
0.2749895905854301
 40
0.3609579395548395
 40
0.4468476390872725
 40
0.5326742333859559
 40
0.6184528589978341
 40
0.7041971176694084
 40
0.7899185400479635
 40
0.8756264599509859
 40
0.9613281374543444
 40
1.0
 40
1.0
 40
1.0
 40
1.0
 10
576.0044309243403
 20
-107.8378768334792
 30
0.0
 10
576.154339119643
 20
-108.0041519898783
 30
0.0
 10
577.0882737048528
 20
-109.0400534554969
 30
0.0
 10
578.6376993709831
 20
-111.1748922382675
 30
0.0
 10
580.6357650097069
 20
-114.2455431593349
 30
0.0
 10
582.432760282543
 20
-117.5545855032688
 30
0.0
 10
584.0437761106112
 20
-121.0670581586147
 30
0.0
 10
585.4599299290226
 20
-124.7815207475573
 30
0.0
 10
586.6792495629207
 20
-128.6870752009407
 30
0.0
 10
587.6984887412318
 20
-132.7747716366779
 30
0.0
 10
588.5149780835085
 20
-137.0347238309301
 30
0.0
 10
589.1274540296915
 20
-141.4561368582001
 30
0.0
 10
589.5310215305523
 20
-146.0300386478146
 30
0.0
 10
589.699012784037
 20
-149.8771558516015
 30
0.0
 10
589.7128667587136
 20
-152.2068272865433
 30
0.0
 10
589.7171744193639
 20
-152.9311994759423
 30
0.0
  0
SPLINE
  5
16D
330
1F
100
AcDbEntity
  8
0
  6
Continuous
 62
     7
370
    25
100
AcDbSpline
210
0.0
220
0.0
230
1.0
 70
     8
 71
     3
 72
    51
 73
    47
 74
     0
 42
0.00000001
 43
0.00000001
 40
0.0
 40
0.0
 40
0.0
 40
0.0
 40
0.0122068805582624
 40
0.0354252894322151
 40
0.0586471753674239
 40
0.0818709486751686
 40
0.1050969320713023
 40
0.1283252785398757
 40
0.151556013963514
 40
0.1747890709033985
 40
0.1980243145420925
 40
0.2212615622555268
 40
0.2445005981288109
 40
0.2677411835324993
 40
0.2909830646759758
 40
0.3142259778745273
 40
0.3374696531147205
 40
0.3607138163806882
 40
0.3839581911100246
 40
0.4072024765199034
 40
0.4304463230381559
 40
0.4536894509443742
 40
0.4769315808125927
 40
0.5001724346570863
 40
0.5234117378231743
 40
0.5466492219473844
 40
0.5698846294100484
 40
0.5931177198149455
 40
0.616348279172415
 40
0.6395761326348078
 40
0.6628011618318322
 40
0.6860233280640907
 40
0.7092427028038832
 40
0.7324595070607703
 40
0.7556741610848551
 40
0.7788873454189937
 40
0.8021000121968945
 40
0.825313129139119
 40
0.8485284493276968
 40
0.8717482762268771
 40
0.8949755211197271
 40
0.9182137108042185
 40
0.9414669066039668
 40
0.9647394872216767
 40
0.9880357493993719
 40
1.0
 40
1.0
 40
1.0
 40
1.0
 10
589.7171744193639
 20
-152.9311994759423
 30
0.0
 10
589.7113838497852
 20
-153.781475935983
 30
0.0
 10
589.6945791794748
 20
-156.2490424490308
 30
0.0
 10
589.5076895858298
 20
-160.4242338339005
 30
0.0
 10
589.0882456527371
 20
-165.4811422433766
 30
0.0
 10
588.4588321376597
 20
-170.6314251714926
 30
0.0
 10
587.624453063992
 20
-175.859886179621
 30
0.0
 10
586.5860885150126
 20
-181.1540319329413
 30
0.0
 10
585.3464612711838
 20
-186.5004480742959
 30
0.0
 10
583.9084880238423
 20
-191.8857775697597
 30
0.0
 10
582.2756849399468
 20
-197.2965064176338
 30
0.0
 10
580.4520472806308
 20
-202.7190681428736
 30
0.0
 10
578.4420680886266
 20
-208.1398620637179
 30
0.0
 10
576.250717964443
 20
-213.545293928851
 30
0.0
 10
573.8834338008212
 20
-218.9218098787752
 30
0.0
 10
571.3461037737239
 20
-224.2559315595248
 30
0.0
 10
568.6450520879297
 20
-229.534290318548
 30
0.0
 10
565.7870226120866
 20
-234.7436610484522
 30
0.0
 10
562.7791626656884
 20
-239.8709938647093
 30
0.0
 10
559.6290073904892
 20
-244.9034436865132
 30
0.0
 10
556.3444583068234
 20
-249.8284082010583
 30
0.0
 10
552.9337623659532
 20
-254.6335614028845
 30
0.0
 10
549.40548869545
 20
-259.3068878250026
 30
0.0
 10
545.7685106133919
 20
-263.8367081362259
 30
0.0
 10
542.0319837208713
 20
-268.2117091998896
 30
0.0
 10
538.2053232359482
 20
-272.4209735002165
 30
0.0
 10
534.2981805451486
 20
-276.4540079067224
 30
0.0
 10
530.320418924753
 20
-280.300771745848
 30
0.0
 10
526.2820883552457
 20
-283.9517041398971
 30
0.0
 10
522.1933993164656
 20
-287.397750554798
 30
0.0
 10
518.0646954073806
 20
-290.6303884679487
 30
0.0
 10
513.9064245905325
 20
-293.6416520063266
 30
0.0
 10
509.7291088019307
 20
-296.42415535097
 30
0.0
 10
505.5433116792439
 20
-298.9711144731819
 30
0.0
 10
501.3596039790389
 20
-301.2763669979985
 30
0.0
 10
497.1885306222355
 20
-303.3343864559806
 30
0.0
 10
493.0405936556967
 20
-305.1402888080229
 30
0.0
 10
488.926196757043
 20
-306.6898455611034
 30
0.0
 10
484.8555814991095
 20
-307.9795271467124
 30
0.0
 10
480.8388235529068
 20
-309.0063586607436
 30
0.0
 10
476.8855751704031
 20
-309.7684295169738
 30
0.0
 10
473.0059002353024
 20
-310.2628730618263
 30
0.0
 10
469.2069932927594
 20
-310.4932748664095
 30
0.0
 10
465.5053376199392
 20
-310.4418145155406
 30
0.0
 10
462.4702699359197
 20
-310.2168317028447
 30
0.0
 10
460.7165987894716
 20
-309.9066441875407
 30
0.0
 10
460.1215603338738
 20
-309.8013944088543
 30
0.0
  0
SPLINE
  5
16E
330
1F
100
AcDbEntity
  8
0
  6
Continuous
 62
     7
370
    25
100
AcDbSpline
210
0.0
220
0.0
230
1.0
 70
     8
 71
     3
 72
    13
 73
     9
 74
     0
 42
0.00000001
 43
0.00000001
 40
0.0
 40
0.0
 40
0.0
 40
0.0
 40
0.0213876440744202
 40
0.2552341454925166
 40
0.4603303484884342
 40
0.678418761583125
 40
0.8906960965911868
 40
1.0
 40
1.0
 40
1.0
 40
1.0
 10
601.780821458182
 20
-200.5344151914584
 30
0.0
 10
601.8068854920871
 20
-200.5463916325666
 30
0.0
 10
602.1179263621652
 20
-200.689315121551
 30
0.0
 10
602.5548840241399
 20
-201.165378697434
 30
0.0
 10
603.1059726657434
 20
-202.0035290540028
 30
0.0
 10
603.4782001955489
 20
-203.0692386463178
 30
0.0
 10
603.6537668837206
 20
-204.1404943849422
 30
0.0
 10
603.6692975262608
 20
-204.8518585237791
 30
0.0
 10
603.6745763163435
 20
-205.0936477447632
 30
0.0
  0
SPLINE
  5
16F
330
1F
100
AcDbEntity
  8
0
  6
Continuous
 62
     7
370
    25
100
AcDbSpline
210
0.0
220
0.0
230
1.0
 70
     8
 71
     3
 72
    22
 73
    18
 74
     0
 42
0.00000001
 43
0.00000001
 40
0.0
 40
0.0
 40
0.0
 40
0.0
 40
0.0357957841880403
 40
0.1045261594770771
 40
0.1734959821004397
 40
0.2426747877289096
 40
0.312016247722651
 40
0.3814428720990989
 40
0.4508656940685197
 40
0.5201663738648551
 40
0.5892547153370089
 40
0.6580502909886724
 40
0.7265115741575885
 40
0.7947102482258771
 40
0.8628985641336241
 40
0.9317178103463468
 40
1.0
 40
1.0
 40
1.0
 40
1.0
 10
603.6745763163435
 20
-205.0936477447632
 30
0.0
 10
603.6692728491524
 20
-205.3432062558958
 30
0.0
 10
603.6537863590539
 20
-206.0719343261196
 30
0.0
 10
603.4784515010671
 20
-207.3738970278383
 30
0.0
 10
603.0831075168192
 20
-208.9893928684999
 30
0.0
 10
602.4959994807687
 20
-210.6369598042011
 30
0.0
 10
601.7345100020555
 20
-212.2675741910541
 30
0.0
 10
600.8177553783981
 20
-213.8360618779182
 30
0.0
 10
599.7715852370197
 20
-215.2979530056338
 30
0.0
 10
598.6263401894216
 20
-216.6124240602043
 30
0.0
 10
597.4164559032871
 20
-217.7434508862899
 30
0.0
 10
596.1791822460387
 20
-218.6616783257019
 30
0.0
 10
594.9538970044988
 20
-219.3452973041426
 30
0.0
 10
593.7790364154938
 20
-219.7840052000281
 30
0.0
 10
592.6940839390145
 20
-219.9719628232183
 30
0.0
 10
591.7240553285033
 20
-219.9400333760113
 30
0.0
 10
591.1932456928729
 20
-219.7382619930661
 30
0.0
 10
590.9288805242585
 20
-219.6377714930952
 30
0.0
  0
SPLINE
  5
170
330
1F
100
AcDbEntity
  8
0
  6
Continuous
 62
     7
370
    25
100
AcDbSpline
210
0.0
220
0.0
230
1.0
 70
     8
 71
     3
 72
    13
 73
     9
 74
     0
 42
0.00000001
 43
0.00000001
 40
0.0
 40
0.0
 40
0.0
 40
0.0
 40
0.0213876440744917
 40
0.2552341454925909
 40
0.4603303484885224
 40
0.67841876158322
 40
0.8906960965912933
 40
0.9999999999999999
 40
0.9999999999999999
 40
0.9999999999999999
 40
0.9999999999999999
 10
563.605012305557
 20
-266.6568560697928
 30
0.0
 10
563.6310763394621
 20
-266.6688325109009
 30
0.0
 10
563.9421172095402
 20
-266.8117559998854
 30
0.0
 10
564.3790748715151
 20
-267.2878195757685
 30
0.0
 10
564.9301635131185
 20
-268.1259699323375
 30
0.0
 10
565.3023910429239
 20
-269.1916795246526
 30
0.0
 10
565.4779577310954
 20
-270.2629352632768
 30
0.0
 10
565.4934883736357
 20
-270.9742994021136
 30
0.0
 10
565.4987671637184
 20
-271.2160886230974
 30
0.0
  0
SPLINE
  5
171
330
1F
100
AcDbEntity
  8
0
  6
Continuous
 62
     7
370
    25
100
AcDbSpline
210
0.0
220
0.0
230
1.0
 70
     8
 71
     3
 72
    22
 73
    18
 74
     0
 42
0.00000001
 43
0.00000001
 40
0.0
 40
0.0
 40
0.0
 40
0.0
 40
0.0357957841880387
 40
0.1045261594770968
 40
0.1734959821004524
 40
0.2426747877289275
 40
0.3120162477226658
 40
0.3814428720991135
 40
0.4508656940685349
 40
0.5201663738648704
 40
0.5892547153370121
 40
0.6580502909886815
 40
0.7265115741575994
 40
0.7947102482258861
 40
0.86289856413363
 40
0.9317178103463538
 40
1.0
 40
1.0
 40
1.0
 40
1.0
 10
565.4987671637183
 20
-271.2160886230974
 30
0.0
 10
565.4934636965273
 20
-271.4656471342299
 30
0.0
 10
565.4779772064289
 20
-272.194375204454
 30
0.0
 10
565.3026423484419
 20
-273.4963379061728
 30
0.0
 10
564.9072983641938
 20
-275.1118337468346
 30
0.0
 10
564.3201903281434
 20
-276.7594006825358
 30
0.0
 10
563.5587008494299
 20
-278.3900150693889
 30
0.0
 10
562.6419462257726
 20
-279.958502756253
 30
0.0
 10
561.5957760843942
 20
-281.4203938839686
 30
0.0
 10
560.4505310367961
 20
-282.734864938539
 30
0.0
 10
559.2406467506614
 20
-283.8658917646245
 30
0.0
 10
558.0033730934132
 20
-284.7841192040365
 30
0.0
 10
556.7780878518731
 20
-285.4677381824771
 30
0.0
 10
555.603227262868
 20
-285.9064460783625
 30
0.0
 10
554.5182747863889
 20
-286.0944037015526
 30
0.0
 10
553.5482461758777
 20
-286.0624742543454
 30
0.0
 10
553.0174365402473
 20
-285.8607028714002
 30
0.0
 10
552.753071371633
 20
-285.7602123714292
 30
0.0
  0
SPLINE
  5
172
330
1F
100
AcDbEntity
  8
0
  6
Continuous
 62
     7
370
    25
100
AcDbSpline
210
0.0
220
0.0
230
1.0
 70
     8
 71
     3
 72
    62
 73
    58
 74
     0
 42
0.00000001
 43
0.00000001
 40
0.0
 40
0.0
 40
0.0
 40
0.0
 40
0.0025994662432347
 40
0.0212171649288921
 40
0.0398120492490397
 40
0.058384734074919
 40
0.0769373734480367
 40
0.0954730018129893
 40
0.1139949726784337
 40
0.1325065552912461
 40
0.1510106896988568
 40
0.1695098697554784
 40
0.1880061151748337
 40
0.2065009976388063
 40
0.2249955811832395
 40
0.2434905755915943
 40
0.2619866434257125
 40
0.2804842180781581
 40
0.2989835551670209
 40
0.3174847751861691
 40
0.3359878977468497
 40
0.3544928684038809
 40
0.3729995792534582
 40
0.3915078844696184
 40
0.4100176118247549
 40
0.4285285710816917
 40
0.4470405599856378
 40
0.4655533684411808
 40
0.484066781338672
 40
0.5025805803974902
 40
0.521094545319087
 40
0.539608435661246
 40
0.5581219738441466
 40
0.5766349370716728
 40
0.5951471027903309
 40
0.6136582496074399
 40
0.6321681588053737
 40
0.6506766167110366
 40
0.6691834182584112
 40
0.6876883721712186
 40
0.706191308305874
 40
0.724692087832604
 40
0.743190617091007
 40
0.7616868661242229
 40
0.780180893047371
 40
0.7986728754911399
 40
0.8171631502914969
 40
0.8356522622241344
 40
0.8541409689942956
 40
0.8726300482457429
 40
0.8911209010382942
 40
0.9096153674731584
 40
0.9281157721245706
 40
0.9466249295442642
 40
0.9651460787204093
 40
0.9836827086330755
 40
1.0
 40
1.0
 40
1.0
 40
1.0
 10
453.3077514617757
 20
-306.0946465758086
 30
0.0
 10
453.1983223057716
 20
-305.9731712082719
 30
0.0
 10
452.3051480023884
 20
-304.9816742367188
 30
0.0
 10
450.7937011838622
 20
-302.8949007154019
 30
0.0
 10
448.7923911510159
 20
-299.8283613964242
 30
0.0
 10
446.9935109133387
 20
-296.5213827796543
 30
0.0
 10
445.3801861187469
 20
-293.0113996433907
 30
0.0
 10
443.9617867754407
 20
-289.2991827343509
 30
0.0
 10
442.7401449303002
 20
-285.3958119939944
 30
0.0
 10
441.7186082603257
 20
-281.3101494207035
 30
0.0
 10
440.8996084609889
 20
-277.0522201510752
 30
0.0
 10
440.2852870761265
 20
-272.6323196663694
 30
0.0
 10
439.877296400291
 20
-268.0612466456473
 30
0.0
 10
439.6768217597954
 20
-263.3502283605844
 30
0.0
 10
439.6845460186578
 20
-258.5109130516839
 30
0.0
 10
439.9006351904284
 20
-253.5553128241053
 30
0.0
 10
440.3247300120969
 20
-248.4957570504642
 30
0.0
 10
440.9559441281845
 20
-243.3448505518925
 30
0.0
 10
441.7928611177268
 20
-238.1154555352246
 30
0.0
 10
442.8335351520789
 20
-232.8206523076115
 30
0.0
 10
444.0754945417672
 20
-227.4737003935261
 30
0.0
 10
445.5157476836237
 20
-222.0880002376496
 30
0.0
 10
447.1507909881441
 20
-216.6770555740373
 30
0.0
 10
448.9766184727687
 20
-211.2544364537037
 30
0.0
 10
450.9887327847689
 20
-205.833742891737
 30
0.0
 10
453.1821574810321
 20
-200.4285690852357
 30
0.0
 10
455.5514504387249
 20
-195.0524681584585
 30
0.0
 10
458.0907183044366
 20
-189.7189174029352
 30
0.0
 10
460.7936319126561
 20
-184.4412839937395
 30
0.0
 10
463.653442620038
 20
-179.2327911762348
 30
0.0
 10
466.6629984922932
 20
-174.106486666131
 30
0.0
 10
469.8147600237065
 20
-169.0752129116018
 30
0.0
 10
473.1008215554269
 20
-164.1515692173433
 30
0.0
 10
476.5129322875487
 20
-159.347878141777
 30
0.0
 10
480.0425194381598
 20
-154.6761514243185
 30
0.0
 10
483.6807062848698
 20
-150.1480643160886
 30
0.0
 10
487.4183340810393
 20
-145.7749255283697
 30
0.0
 10
491.2459847307301
 20
-141.5676478137614
 30
0.0
 10
495.1540042465156
 20
-137.5367192096434
 30
0.0
 10
499.1325270382416
 20
-133.6921749747417
 30
0.0
 10
503.1715011096003
 20
-130.0435702592007
 30
0.0
 10
507.2607142759693
 20
-126.5999535656718
 30
0.0
 10
511.3898215581416
 20
-123.3698410953303
 30
0.0
 10
515.5483739598432
 20
-120.3611921119229
 30
0.0
 10
519.7258488612075
 20
-117.5813855941717
 30
0.0
 10
523.9116823784651
 20
-115.0371983694021
 30
0.0
 10
528.0953037351627
 20
-112.7347858437082
 30
0.0
 10
532.2661688278307
 20
-110.6796658300037
 30
0.0
 10
536.4137744857223
 20
-108.8767196055942
 30
0.0
 10
540.5277261816107
 20
-107.3301496538646
 30
0.0
 10
544.5977557955088
 20
-106.0435459065268
 30
0.0
 10
548.6138976702773
 20
-105.0196211837481
 30
0.0
 10
552.5661012928058
 20
-104.2612289667466
 30
0.0
 10
556.445804686139
 20
-103.7676803866461
 30
0.0
 10
560.2402193171376
 20
-103.5486386312358
 30
0.0
 10
563.8043224326506
 20
-103.5714354818321
 30
0.0
 10
566.0474959303186
 20
-103.7999878400311
 30
0.0
 10
567.0976651567421
 20
-103.9069874338907
 30
0.0
  0
SPLINE
  5
173
330
1F
100
AcDbEntity
  8
0
  6
Continuous
 62
     7
370
    25
100
AcDbSpline
210
0.0
220
0.0
230
1.0
 70
     8
 71
     3
 72
    13
 73
     9
 74
     0
 42
0.00000001
 43
0.00000001
 40
0.0
 40
0.0
 40
0.0
 40
0.0
 40
0.0213876440744445
 40
0.2552341454925278
 40
0.4603303484884681
 40
0.6784187615831578
 40
0.8906960965912412
 40
1.0
 40
1.0
 40
1.0
 40
1.0
 10
615.7541374180711
 20
-132.2479067141497
 30
0.0
 10
615.780201451976
 20
-132.2598831552579
 30
0.0
 10
616.0912423220542
 20
-132.4028066442424
 30
0.0
 10
616.528199984029
 20
-132.8788702201253
 30
0.0
 10
617.0792886256324
 20
-133.7170205766942
 30
0.0
 10
617.451516155438
 20
-134.7827301690093
 30
0.0
 10
617.6270828436094
 20
-135.8539859076337
 30
0.0
 10
617.6426134861499
 20
-136.5653500464705
 30
0.0
 10
617.6478922762325
 20
-136.8071392674545
 30
0.0
  0
SPLINE
  5
174
330
1F
100
AcDbEntity
  8
0
  6
Continuous
 62
     7
370
    25
100
AcDbSpline
210
0.0
220
0.0
230
1.0
 70
     8
 71
     3
 72
    22
 73
    18
 74
     0
 42
0.00000001
 43
0.00000001
 40
0.0
 40
0.0
 40
0.0
 40
0.0
 40
0.0357957841880393
 40
0.104526159477098
 40
0.1734959821004502
 40
0.2426747877289228
 40
0.3120162477226581
 40
0.3814428720991135
 40
0.4508656940685346
 40
0.5201663738648685
 40
0.5892547153370191
 40
0.6580502909886844
 40
0.7265115741575988
 40
0.7947102482258832
 40
0.8628985641336266
 40
0.9317178103463449
 40
1.0
 40
1.0
 40
1.0
 40
1.0
 10
617.6478922762325
 20
-136.8071392674545
 30
0.0
 10
617.6425888090414
 20
-137.056697778587
 30
0.0
 10
617.627102318943
 20
-137.7854258488111
 30
0.0
 10
617.451767460956
 20
-139.0873885505298
 30
0.0
 10
617.056423476708
 20
-140.7028843911917
 30
0.0
 10
616.4693154406576
 20
-142.3504513268928
 30
0.0
 10
615.7078259619442
 20
-143.9810657137458
 30
0.0
 10
614.7910713382867
 20
-145.54955340061
 30
0.0
 10
613.7449011969082
 20
-147.0114445283257
 30
0.0
 10
612.5996561493102
 20
-148.3259155828961
 30
0.0
 10
611.3897718631755
 20
-149.4569424089816
 30
0.0
 10
610.1524982059273
 20
-150.3751698483935
 30
0.0
 10
608.9272129643873
 20
-151.0587888268342
 30
0.0
 10
607.7523523753823
 20
-151.4974967227195
 30
0.0
 10
606.6673998989031
 20
-151.6854543459096
 30
0.0
 10
605.6973712883919
 20
-151.6535248987026
 30
0.0
 10
605.1665616527616
 20
-151.4517535157573
 30
0.0
 10
604.9021964841471
 20
-151.3512630157863
 30
0.0
  0
SPLINE
  5
175
330
1F
100
AcDbEntity
  8
0
  6
Continuous
 62
     7
370
    25
100
AcDbSpline
210
0.0
220
0.0
230
1.0
 70
     8
 71
     3
 72
    13
 73
     9
 74
     0
 42
0.00000001
 43
0.00000001
 40
0.0
 40
0.0
 40
0.0
 40
0.0
 40
0.0213876440744951
 40
0.2552341454925902
 40
0.4603303484885139
 40
0.6784187615832019
 40
0.8906960965912778
 40
1.0
 40
1.0
 40
1.0
 40
1.0
 10
511.4558871930462
 20
-312.8977747142281
 30
0.0
 10
511.4819512269513
 20
-312.9097511553363
 30
0.0
 10
511.7929920970295
 20
-313.0526746443207
 30
0.0
 10
512.2299497590043
 20
-313.5287382202039
 30
0.0
 10
512.7810384006077
 20
-314.3668885767729
 30
0.0
 10
513.1532659304131
 20
-315.4325981690879
 30
0.0
 10
513.3288326185848
 20
-316.5038539077122
 30
0.0
 10
513.344363261125
 20
-317.215218046549
 30
0.0
 10
513.3496420512076
 20
-317.4570072675328
 30
0.0
  0
SPLINE
  5
176
330
1F
100
AcDbEntity
  8
0
  6
Continuous
 62
     7
370
    25
100
AcDbSpline
210
0.0
220
0.0
230
1.0
 70
     8
 71
     3
 72
    22
 73
    18
 74
     0
 42
0.00000001
 43
0.00000001
 40
0.0
 40
0.0
 40
0.0
 40
0.0
 40
0.0357957841880389
 40
0.1045261594770929
 40
0.1734959821004478
 40
0.242674787728919
 40
0.3120162477226609
 40
0.3814428720991102
 40
0.4508656940685309
 40
0.5201663738648626
 40
0.5892547153370158
 40
0.6580502909886824
 40
0.7265115741575978
 40
0.7947102482258819
 40
0.8628985641336245
 40
0.9317178103463456
 40
0.9999999999999999
 40
0.9999999999999999
 40
0.9999999999999999
 40
0.9999999999999999
 10
513.3496420512076
 20
-317.4570072675328
 30
0.0
 10
513.3443385840166
 20
-317.7065657786653
 30
0.0
 10
513.328852093918
 20
-318.4352938488893
 30
0.0
 10
513.1535172359312
 20
-319.7372565506081
 30
0.0
 10
512.7581732516832
 20
-321.3527523912699
 30
0.0
 10
512.1710652156327
 20
-323.0003193269711
 30
0.0
 10
511.4095757369194
 20
-324.6309337138241
 30
0.0
 10
510.4928211132619
 20
-326.1994214006883
 30
0.0
 10
509.4466509718836
 20
-327.6613125284039
 30
0.0
 10
508.3014059242854
 20
-328.9757835829743
 30
0.0
 10
507.0915216381508
 20
-330.1068104090598
 30
0.0
 10
505.8542479809024
 20
-331.0250378484719
 30
0.0
 10
504.6289627393625
 20
-331.7086568269125
 30
0.0
 10
503.4541021503575
 20
-332.1473647227978
 30
0.0
 10
502.3691496738783
 20
-332.3353223459879
 30
0.0
 10
501.399121063367
 20
-332.3033928987809
 30
0.0
 10
500.8683114277367
 20
-332.1016215158357
 30
0.0
 10
500.6039462591223
 20
-332.0011310158647
 30
0.0
  0
SPLINE
  5
177
330
1F
100
AcDbEntity
  8
0
  6
Continuous
 62
     7
370
    25
100
AcDbSpline
210
0.0
220
0.0
230
1.0
 70
     8
 71
     3
 72
    13
 73
     9
 74
     0
 42
0.00000001
 43
0.00000001
 40
0.0
 40
0.0
 40
0.0
 40
0.0
 40
0.0213876440744938
 40
0.2552341454925776
 40
0.4603303484885228
 40
0.6784187615832252
 40
0.8906960965912855
 40
1.0
 40
1.0
 40
1.0
 40
1.0
 10
601.7808214581868
 20
-80.0946454383024
 30
0.0
 10
601.8068854920919
 20
-80.10662187941057
 30
0.0
 10
602.11792636217
 20
-80.24954536839505
 30
0.0
 10
602.5548840241448
 20
-80.72560894427825
 30
0.0
 10
603.1059726657481
 20
-81.5637593008472
 30
0.0
 10
603.4782001955537
 20
-82.62946889316223
 30
0.0
 10
603.6537668837252
 20
-83.70072463178657
 30
0.0
 10
603.6692975262655
 20
-84.4120887706232
 30
0.0
 10
603.6745763163482
 20
-84.65387799160706
 30
0.0
  0
SPLINE
  5
178
330
1F
100
AcDbEntity
  8
0
  6
Continuous
 62
     7
370
    25
100
AcDbSpline
210
0.0
220
0.0
230
1.0
 70
     8
 71
     3
 72
    22
 73
    18
 74
     0
 42
0.00000001
 43
0.00000001
 40
0.0
 40
0.0
 40
0.0
 40
0.0
 40
0.0357957841880394
 40
0.1045261594770985
 40
0.1734959821004507
 40
0.2426747877289226
 40
0.3120162477226651
 40
0.381442872099112
 40
0.4508656940685333
 40
0.5201663738648667
 40
0.5892547153370142
 40
0.6580502909886831
 40
0.7265115741575985
 40
0.7947102482258843
 40
0.8628985641336282
 40
0.9317178103463507
 40
1.0
 40
1.0
 40
1.0
 40
1.0
 10
603.6745763163482
 20
-84.65387799160706
 30
0.0
 10
603.6692728491571
 20
-84.9034365027396
 30
0.0
 10
603.6537863590586
 20
-85.63216457296366
 30
0.0
 10
603.4784515010716
 20
-86.9341272746825
 30
0.0
 10
603.0831075168237
 20
-88.54962311534425
 30
0.0
 10
602.4959994807732
 20
-90.19719005104545
 30
0.0
 10
601.7345100020598
 20
-91.82780443789844
 30
0.0
 10
600.8177553784025
 20
-93.39629212476265
 30
0.0
 10
599.771585237024
 20
-94.8581832524782
 30
0.0
 10
598.626340189426
 20
-96.17265430704862
 30
0.0
 10
597.4164559032912
 20
-97.30368113313415
 30
0.0
 10
596.179182246043
 20
-98.22190857254608
 30
0.0
 10
594.953897004503
 20
-98.9055275509868
 30
0.0
 10
593.779036415498
 20
-99.34423544687216
 30
0.0
 10
592.6940839390188
 20
-99.53219307006225
 30
0.0
 10
591.7240553285075
 20
-99.5002636228552
 30
0.0
 10
591.1932456928772
 20
-99.29849223990996
 30
0.0
 10
590.9288805242628
 20
-99.19800173993899
 30
0.0
  0
SPLINE
  5
179
330
1F
100
AcDbEntity
  8
0
  6
Continuous
 62
     7
370
    25
100
AcDbSpline
210
0.0
220
0.0
230
1.0
 70
     8
 71
     3
 72
    13
 73
     9
 74
     0
 42
0.00000001
 43
0.00000001
 40
0.0
 40
0.0
 40
0.0
 40
0.0
 40
0.0213876440744294
 40
0.2552341454925339
 40
0.4603303484884577
 40
0.6784187615831422
 40
0.8906960965912282
 40
1.0
 40
1.0
 40
1.0
 40
1.0
 10
459.3067620805367
 20
-326.8669543167148
 30
0.0
 10
459.3328261144417
 20
-326.878930757823
 30
0.0
 10
459.6438669845199
 20
-327.0218542468074
 30
0.0
 10
460.0808246464945
 20
-327.4979178226906
 30
0.0
 10
460.6319132880981
 20
-328.3360681792593
 30
0.0
 10
461.0041408179036
 20
-329.4017777715744
 30
0.0
 10
461.1797075060752
 20
-330.4730335101987
 30
0.0
 10
461.1952381486155
 20
-331.1843976490356
 30
0.0
 10
461.2005169386981
 20
-331.4261868700197
 30
0.0
  0
SPLINE
  5
17A
330
1F
100
AcDbEntity
  8
0
  6
Continuous
 62
     7
370
    25
100
AcDbSpline
210
0.0
220
0.0
230
1.0
 70
     8
 71
     3
 72
    22
 73
    18
 74
     0
 42
0.00000001
 43
0.00000001
 40
0.0
 40
0.0
 40
0.0
 40
0.0
 40
0.0357957841880388
 40
0.1045261594770928
 40
0.1734959821004476
 40
0.2426747877289172
 40
0.3120162477226617
 40
0.38144287209911
 40
0.450865694068531
 40
0.5201663738648623
 40
0.5892547153370142
 40
0.6580502909886796
 40
0.7265115741575946
 40
0.7947102482258785
 40
0.8628985641336208
 40
0.9317178103463414
 40
1.0
 40
1.0
 40
1.0
 40
1.0
 10
461.2005169386981
 20
-331.4261868700196
 30
0.0
 10
461.195213471507
 20
-331.6757453811522
 30
0.0
 10
461.1797269814087
 20
-332.4044734513761
 30
0.0
 10
461.0043921234217
 20
-333.7064361530948
 30
0.0
 10
460.6090481391736
 20
-335.3219319937567
 30
0.0
 10
460.0219401031233
 20
-336.9694989294579
 30
0.0
 10
459.2604506244098
 20
-338.600113316311
 30
0.0
 10
458.3436960007524
 20
-340.1686010031751
 30
0.0
 10
457.297525859374
 20
-341.6304921308907
 30
0.0
 10
456.1522808117759
 20
-342.9449631854612
 30
0.0
 10
454.9423965256413
 20
-344.0759900115467
 30
0.0
 10
453.705122868393
 20
-344.9942174509587
 30
0.0
 10
452.4798376268531
 20
-345.6778364293992
 30
0.0
 10
451.3049770378481
 20
-346.1165443252846
 30
0.0
 10
450.2200245613689
 20
-346.3045019484748
 30
0.0
 10
449.2499959508576
 20
-346.2725725012677
 30
0.0
 10
448.7191863152273
 20
-346.0708011183224
 30
0.0
 10
448.4548211466129
 20
-345.9703106183515
 30
0.0
  0
SPLINE
  5
17B
330
1F
100
AcDbEntity
  8
0
  6
Continuous
 62
     7
370
    25
100
AcDbSpline
210
0.0
220
0.0
230
1.0
 70
     8
 71
     3
 72
    13
 73
     9
 74
     0
 42
0.00000001
 43
0.00000001
 40
0.0
 40
0.0
 40
0.0
 40
0.0
 40
0.021387644074454
 40
0.2552341454925434
 40
0.460330348488477
 40
0.6784187615831679
 40
0.8906960965912528
 40
1.0
 40
1.0
 40
1.0
 40
1.0
 10
563.6050123055651
 20
-58.049055605429
 30
0.0
 10
563.63107633947
 20
-58.06103204653715
 30
0.0
 10
563.9421172095481
 20
-58.20395553552154
 30
0.0
 10
564.3790748715229
 20
-58.68001911140469
 30
0.0
 10
564.9301635131264
 20
-59.5181694679735
 30
0.0
 10
565.3023910429317
 20
-60.58387906028872
 30
0.0
 10
565.4779577311034
 20
-61.65513479891299
 30
0.0
 10
565.4934883736438
 20
-62.36649893774979
 30
0.0
 10
565.4987671637264
 20
-62.60828815873374
 30
0.0
  0
SPLINE
  5
17C
330
1F
100
AcDbEntity
  8
0
  6
Continuous
 62
     7
370
    25
100
AcDbSpline
210
0.0
220
0.0
230
1.0
 70
     8
 71
     3
 72
    22
 73
    18
 74
     0
 42
0.00000001
 43
0.00000001
 40
0.0
 40
0.0
 40
0.0
 40
0.0
 40
0.0357957841880393
 40
0.1045261594770877
 40
0.1734959821004446
 40
0.2426747877289188
 40
0.3120162477226598
 40
0.3814428720991105
 40
0.4508656940685328
 40
0.5201663738648663
 40
0.5892547153370148
 40
0.6580502909886861
 40
0.7265115741576024
 40
0.7947102482258886
 40
0.8628985641336365
 40
0.9317178103463521
 40
1.0
 40
1.0
 40
1.0
 40
1.0
 10
565.4987671637264
 20
-62.60828815873374
 30
0.0
 10
565.4934636965353
 20
-62.85784666986627
 30
0.0
 10
565.4779772064369
 20
-63.58657474009025
 30
0.0
 10
565.3026423484499
 20
-64.88853744180895
 30
0.0
 10
564.9072983642019
 20
-66.50403328247076
 30
0.0
 10
564.3201903281515
 20
-68.15160021817194
 30
0.0
 10
563.5587008494382
 20
-69.78221460502499
 30
0.0
 10
562.6419462257808
 20
-71.35070229188916
 30
0.0
 10
561.5957760844024
 20
-72.81259341960475
 30
0.0
 10
560.4505310368044
 20
-74.12706447417519
 30
0.0
 10
559.2406467506696
 20
-75.25809130026073
 30
0.0
 10
558.0033730934213
 20
-76.17631873967268
 30
0.0
 10
556.7780878518813
 20
-76.85993771811339
 30
0.0
 10
555.6032272628762
 20
-77.2986456139988
 30
0.0
 10
554.5182747863971
 20
-77.48660323718889
 30
0.0
 10
553.548246175886
 20
-77.4546737899818
 30
0.0
 10
553.0174365402556
 20
-77.25290240703661
 30
0.0
 10
552.7530713716412
 20
-77.15241190706566
 30
0.0
  0
SPLINE
  5
17D
330
1F
100
AcDbEntity
  8
0
  6
Continuous
 62
     7
370
    25
100
AcDbSpline
210
0.0
220
0.0
230
1.0
 70
     8
 71
     3
 72
    13
 73
     9
 74
     0
 42
0.00000001
 43
0.00000001
 40
0.0
 40
0.0
 40
0.0
 40
0.0
 40
0.0213876440744553
 40
0.2552341454925434
 40
0.460330348488477
 40
0.6784187615831617
 40
0.8906960965912398
 40
1.0
 40
1.0
 40
1.0
 40
1.0
 10
421.130952927915
 20
-304.8213644838415
 30
0.0
 10
421.1570169618201
 20
-304.8333409249497
 30
0.0
 10
421.4680578318981
 20
-304.9762644139342
 30
0.0
 10
421.905015493873
 20
-305.4523279898173
 30
0.0
 10
422.4561041354764
 20
-306.2904783463861
 30
0.0
 10
422.8283316652818
 20
-307.3561879387012
 30
0.0
 10
423.0038983534535
 20
-308.4274436773255
 30
0.0
 10
423.0194289959937
 20
-309.1388078161623
 30
0.0
 10
423.0247077860764
 20
-309.3805970371463
 30
0.0
  0
SPLINE
  5
17E
330
1F
100
AcDbEntity
  8
0
  6
Continuous
 62
     7
370
    25
100
AcDbSpline
210
0.0
220
0.0
230
1.0
 70
     8
 71
     3
 72
    22
 73
    18
 74
     0
 42
0.00000001
 43
0.00000001
 40
0.0
 40
0.0
 40
0.0
 40
0.0
 40
0.0357957841880396
 40
0.1045261594770984
 40
0.1734959821004543
 40
0.2426747877289273
 40
0.3120162477226624
 40
0.3814428720991175
 40
0.450865694068536
 40
0.5201663738648687
 40
0.5892547153370182
 40
0.6580502909886883
 40
0.7265115741576043
 40
0.794710248225885
 40
0.862898564133631
 40
0.9317178103463514
 40
1.0
 40
1.0
 40
1.0
 40
1.0
 10
423.0247077860764
 20
-309.3805970371463
 30
0.0
 10
423.0194043188853
 20
-309.6301555482788
 30
0.0
 10
423.0039178287869
 20
-310.3588836185029
 30
0.0
 10
422.8285829708
 20
-311.6608463202217
 30
0.0
 10
422.4332389865519
 20
-313.2763421608835
 30
0.0
 10
421.8461309505015
 20
-314.9239090965846
 30
0.0
 10
421.0846414717881
 20
-316.5545234834377
 30
0.0
 10
420.1678868481306
 20
-318.1230111703018
 30
0.0
 10
419.1217167067522
 20
-319.5849022980175
 30
0.0
 10
417.9764716591542
 20
-320.8993733525878
 30
0.0
 10
416.7665873730195
 20
-322.0304001786733
 30
0.0
 10
415.5293137157713
 20
-322.9486276180853
 30
0.0
 10
414.3040284742312
 20
-323.632246596526
 30
0.0
 10
413.1291678852263
 20
-324.0709544924114
 30
0.0
 10
412.0442154087471
 20
-324.2589121156014
 30
0.0
 10
411.0741867982359
 20
-324.2269826683943
 30
0.0
 10
410.5433771626056
 20
-324.0252112854491
 30
0.0
 10
410.2790119939912
 20
-323.9247207854782
 30
0.0
  0
SPLINE
  5
17F
330
1F
100
AcDbEntity
  8
0
  6
Continuous
 62
     7
370
    25
100
AcDbSpline
210
0.0
220
0.0
230
1.0
 70
     8
 71
     3
 72
    13
 73
     9
 74
     0
 42
0.00000001
 43
0.00000001
 40
0.0
 40
0.0
 40
0.0
 40
0.0
 40
0.0213876440743913
 40
0.2552341454924554
 40
0.4603303484883858
 40
0.6784187615830878
 40
0.8906960965911627
 40
1.0
 40
1.0
 40
1.0
 40
1.0
 10
511.4558871930554
 20
-72.01823520791572
 30
0.0
 10
511.4819512269604
 20
-72.03021164902384
 30
0.0
 10
511.7929920970385
 20
-72.17313513800838
 30
0.0
 10
512.2299497590132
 20
-72.64919871389108
 30
0.0
 10
512.7810384006167
 20
-73.48734907045998
 30
0.0
 10
513.1532659304222
 20
-74.553058662775
 30
0.0
 10
513.328832618594
 20
-75.62431440139939
 30
0.0
 10
513.3443632611343
 20
-76.3356785402364
 30
0.0
 10
513.3496420512168
 20
-76.57746776122055
 30
0.0
  0
SPLINE
  5
180
330
1F
100
AcDbEntity
  8
0
  6
Continuous
 62
     7
370
    25
100
AcDbSpline
210
0.0
220
0.0
230
1.0
 70
     8
 71
     3
 72
    22
 73
    18
 74
     0
 42
0.00000001
 43
0.00000001
 40
0.0
 40
0.0
 40
0.0
 40
0.0
 40
0.0357957841880399
 40
0.1045261594770958
 40
0.1734959821004537
 40
0.2426747877289258
 40
0.3120162477226666
 40
0.3814428720991211
 40
0.4508656940685421
 40
0.5201663738648749
 40
0.5892547153370289
 40
0.6580502909886897
 40
0.7265115741576125
 40
0.794710248225891
 40
0.8628985641336346
 40
0.9317178103463576
 40
1.0
 40
1.0
 40
1.0
 40
1.0
 10
513.3496420512168
 20
-76.57746776122055
 30
0.0
 10
513.3443385840259
 20
-76.82702627235311
 30
0.0
 10
513.3288520939275
 20
-77.55575434257706
 30
0.0
 10
513.1535172359405
 20
-78.85771704429581
 30
0.0
 10
512.7581732516924
 20
-80.47321288495768
 30
0.0
 10
512.171065215642
 20
-82.1207798206588
 30
0.0
 10
511.4095757369286
 20
-83.75139420751185
 30
0.0
 10
510.4928211132712
 20
-85.31988189437604
 30
0.0
 10
509.4466509718928
 20
-86.78177302209153
 30
0.0
 10
508.3014059242947
 20
-88.09624407666209
 30
0.0
 10
507.0915216381601
 20
-89.22727090274746
 30
0.0
 10
505.8542479809119
 20
-90.14549834215953
 30
0.0
 10
504.628962739372
 20
-90.82911732060016
 30
0.0
 10
503.4541021503669
 20
-91.26782521648553
 30
0.0
 10
502.3691496738878
 20
-91.45578283967565
 30
0.0
 10
501.3991210633766
 20
-91.42385339246869
 30
0.0
 10
500.8683114277463
 20
-91.2220820095235
 30
0.0
 10
500.6039462591319
 20
-91.12159150955259
 30
0.0
  0
SPLINE
  5
181
330
1F
100
AcDbEntity
  8
0
  6
Continuous
 62
     7
370
    25
100
AcDbSpline
210
0.0
220
0.0
230
1.0
 70
     8
 71
     3
 72
    13
 73
     9
 74
     0
 42
0.00000001
 43
0.00000001
 40
0.0
 40
0.0
 40
0.0
 40
0.0
 40
0.0213876440744066
 40
0.2552341454924792
 40
0.4603303484883928
 40
0.678418761583051
 40
0.8906960965911402
 40
1.0
 40
1.0
 40
1.0
 40
1.0
 10
407.1576369680306
 20
-252.6681032079941
 30
0.0
 10
407.1837010019356
 20
-252.6800796491022
 30
0.0
 10
407.4947418720135
 20
-252.8230031380867
 30
0.0
 10
407.9316995339883
 20
-253.2990667139696
 30
0.0
 10
408.4827881755918
 20
-254.1372170705383
 30
0.0
 10
408.8550157053973
 20
-255.2029266628532
 30
0.0
 10
409.030582393569
 20
-256.2741824014777
 30
0.0
 10
409.0461130361094
 20
-256.9855465403147
 30
0.0
 10
409.051391826192
 20
-257.2273357612988
 30
0.0
  0
SPLINE
  5
182
330
1F
100
AcDbEntity
  8
0
  6
Continuous
 62
     7
370
    25
100
AcDbSpline
210
0.0
220
0.0
230
1.0
 70
     8
 71
     3
 72
    22
 73
    18
 74
     0
 42
0.00000001
 43
0.00000001
 40
0.0
 40
0.0
 40
0.0
 40
0.0
 40
0.0357957841880396
 40
0.104526159477075
 40
0.173495982100436
 40
0.2426747877289113
 40
0.3120162477226495
 40
0.3814428720991024
 40
0.4508656940685283
 40
0.520166373864859
 40
0.5892547153370105
 40
0.6580502909886775
 40
0.7265115741575934
 40
0.7947102482258757
 40
0.8628985641336196
 40
0.9317178103463424
 40
1.0
 40
1.0
 40
1.0
 40
1.0
 10
409.051391826192
 20
-257.2273357612988
 30
0.0
 10
409.046088359001
 20
-257.4768942724314
 30
0.0
 10
409.0306018689026
 20
-258.2056223426553
 30
0.0
 10
408.8552670109156
 20
-259.5075850443739
 30
0.0
 10
408.4599230266677
 20
-261.1230808850357
 30
0.0
 10
407.8728149906173
 20
-262.7706478207369
 30
0.0
 10
407.1113255119039
 20
-264.40126220759
 30
0.0
 10
406.1945708882465
 20
-265.9697498944541
 30
0.0
 10
405.1484007468681
 20
-267.4316410221698
 30
0.0
 10
404.0031556992699
 20
-268.7461120767403
 30
0.0
 10
402.7932714131354
 20
-269.8771389028258
 30
0.0
 10
401.555997755887
 20
-270.7953663422379
 30
0.0
 10
400.3307125143471
 20
-271.4789853206785
 30
0.0
 10
399.1558519253419
 20
-271.917693216564
 30
0.0
 10
398.0708994488629
 20
-272.105650839754
 30
0.0
 10
397.1008708383516
 20
-272.073721392547
 30
0.0
 10
396.5700612027212
 20
-271.8719500096018
 30
0.0
 10
396.3056960341068
 20
-271.7714595096309
 30
0.0
  0
SPLINE
  5
183
330
1F
100
AcDbEntity
  8
0
  6
Continuous
 62
     7
370
    25
100
AcDbSpline
210
0.0
220
0.0
230
1.0
 70
     8
 71
     3
 72
    13
 73
     9
 74
     0
 42
0.00000001
 43
0.00000001
 40
0.0
 40
0.0
 40
0.0
 40
0.0
 40
0.0213876440744285
 40
0.2552341454925044
 40
0.4603303484884322
 40
0.6784187615831327
 40
0.8906960965912043
 40
1.0
 40
1.0
 40
1.0
 40
1.0
 10
459.3067620805447
 20
-118.2591538523512
 30
0.0
 10
459.3328261144497
 20
-118.2711302934593
 30
0.0
 10
459.6438669845278
 20
-118.4140537824438
 30
0.0
 10
460.0808246465025
 20
-118.8901173583268
 30
0.0
 10
460.631913288106
 20
-119.7282677148956
 30
0.0
 10
461.0041408179115
 20
-120.7939773072106
 30
0.0
 10
461.1797075060832
 20
-121.865233045835
 30
0.0
 10
461.1952381486235
 20
-122.5765971846719
 30
0.0
 10
461.2005169387061
 20
-122.818386405656
 30
0.0
  0
SPLINE
  5
184
330
1F
100
AcDbEntity
  8
0
  6
Continuous
 62
     7
370
    25
100
AcDbSpline
210
0.0
220
0.0
230
1.0
 70
     8
 71
     3
 72
    22
 73
    18
 74
     0
 42
0.00000001
 43
0.00000001
 40
0.0
 40
0.0
 40
0.0
 40
0.0
 40
0.0357957841880392
 40
0.1045261594770873
 40
0.1734959821004441
 40
0.2426747877289151
 40
0.3120162477226596
 40
0.3814428720991097
 40
0.4508656940685335
 40
0.5201663738648657
 40
0.5892547153370157
 40
0.6580502909886818
 40
0.7265115741575974
 40
0.7947102482258817
 40
0.8628985641336281
 40
0.9317178103463475
 40
1.0
 40
1.0
 40
1.0
 40
1.0
 10
461.2005169387061
 20
-122.818386405656
 30
0.0
 10
461.195213471515
 20
-123.0679449167885
 30
0.0
 10
461.1797269814166
 20
-123.7966729870125
 30
0.0
 10
461.0043921234297
 20
-125.0986356887311
 30
0.0
 10
460.6090481391817
 20
-126.714131529393
 30
0.0
 10
460.0219401031313
 20
-128.3616984650942
 30
0.0
 10
459.2604506244179
 20
-129.9923128519472
 30
0.0
 10
458.3436960007604
 20
-131.5608005388114
 30
0.0
 10
457.2975258593821
 20
-133.022691666527
 30
0.0
 10
456.152280811784
 20
-134.3371627210974
 30
0.0
 10
454.9423965256493
 20
-135.468189547183
 30
0.0
 10
453.705122868401
 20
-136.3864169865949
 30
0.0
 10
452.4798376268611
 20
-137.0700359650356
 30
0.0
 10
451.304977037856
 20
-137.508743860921
 30
0.0
 10
450.2200245613769
 20
-137.6967014841111
 30
0.0
 10
449.2499959508656
 20
-137.6647720369041
 30
0.0
 10
448.7191863152353
 20
-137.4630006539588
 30
0.0
 10
448.4548211466209
 20
-137.3625101539879
 30
0.0
  0
SPLINE
  5
185
330
1F
100
AcDbEntity
  8
0
  6
Continuous
 62
     7
370
    25
100
AcDbSpline
210
0.0
220
0.0
230
1.0
 70
     8
 71
     3
 72
    13
 73
     9
 74
     0
 42
0.00000001
 43
0.00000001
 40
0.0
 40
0.0
 40
0.0
 40
0.0
 40
0.0213876440744951
 40
0.2552341454925957
 40
0.460330348488525
 40
0.6784187615832078
 40
0.8906960965912872
 40
1.0
 40
1.0
 40
1.0
 40
1.0
 10
421.1309529279196
 20
-184.3815947306855
 30
0.0
 10
421.1570169618247
 20
-184.3935711717937
 30
0.0
 10
421.4680578319029
 20
-184.5364946607782
 30
0.0
 10
421.9050154938777
 20
-185.0125582366614
 30
0.0
 10
422.456104135481
 20
-185.8507085932303
 30
0.0
 10
422.8283316652865
 20
-186.9164181855454
 30
0.0
 10
423.0038983534581
 20
-187.9876739241697
 30
0.0
 10
423.0194289959983
 20
-188.6990380630064
 30
0.0
 10
423.0247077860809
 20
-188.9408272839902
 30
0.0
  0
SPLINE
  5
186
330
1F
100
AcDbEntity
  8
0
  6
Continuous
 62
     7
370
    25
100
AcDbSpline
210
0.0
220
0.0
230
1.0
 70
     8
 71
     3
 72
    22
 73
    18
 74
     0
 42
0.00000001
 43
0.00000001
 40
0.0
 40
0.0
 40
0.0
 40
0.0
 40
0.0357957841880399
 40
0.1045261594770879
 40
0.1734959821004451
 40
0.2426747877289161
 40
0.3120162477226598
 40
0.3814428720991095
 40
0.4508656940685301
 40
0.5201663738648663
 40
0.5892547153370139
 40
0.6580502909886837
 40
0.7265115741575991
 40
0.7947102482258823
 40
0.8628985641336249
 40
0.9317178103463452
 40
1.0
 40
1.0
 40
1.0
 40
1.0
 10
423.0247077860809
 20
-188.9408272839902
 30
0.0
 10
423.0194043188899
 20
-189.1903857951228
 30
0.0
 10
423.0039178287915
 20
-189.9191138653467
 30
0.0
 10
422.8285829708045
 20
-191.2210765670654
 30
0.0
 10
422.4332389865565
 20
-192.8365724077272
 30
0.0
 10
421.8461309505062
 20
-194.4841393434284
 30
0.0
 10
421.0846414717927
 20
-196.1147537302814
 30
0.0
 10
420.1678868481353
 20
-197.6832414171456
 30
0.0
 10
419.121716706757
 20
-199.1451325448612
 30
0.0
 10
417.976471659159
 20
-200.4596035994317
 30
0.0
 10
416.7665873730242
 20
-201.5906304255172
 30
0.0
 10
415.529313715776
 20
-202.5088578649292
 30
0.0
 10
414.304028474236
 20
-203.1924768433698
 30
0.0
 10
413.129167885231
 20
-203.6311847392552
 30
0.0
 10
412.0442154087518
 20
-203.8191423624453
 30
0.0
 10
411.0741867982406
 20
-203.7872129152383
 30
0.0
 10
410.5433771626103
 20
-203.5854415322931
 30
0.0
 10
410.2790119939959
 20
-203.4849510323221
 30
0.0
  0
LWPOLYLINE
  5
187
330
1F
100
AcDbEntity
  8
0
  6
Continuous
 62
     7
370
    25
100
AcDbPolyline
 90
      143
 70
   128
 43
0.0
 10
624.6582999163
 20
-132.5209966804
 10
624.5413354616
 20
-126.4845205716
 10
624.190671061
 20
-120.5949054331
 10
623.6069931565
 20
-114.8636804632
 10
622.7914443249
 20
-109.3020648038
 10
621.7456210415
 20
-103.9209455788
 10
620.4715705544
 20
-98.7308565818
 10
618.9717868772
 20
-93.7419576557
 10
617.2492059071
 20
-88.9640148044
 10
615.307199677
 20
-84.4063810755
 10
613.1495697554
 20
-80.0779782509
 10
610.7805398041
 20
-75.9872793825
 10
608.2047473107
 20
-72.1422922055
 10
605.4272345097
 20
-68.5505434627
 10
602.4534385131
 20
-65.219064171
 10
599.289180666
 20
-62.1543758576
 10
595.9406551518
 20
-59.3624777937
 10
592.4144168664
 20
-56.848835251
 10
588.717368587
 20
-54.6183688027
 10
584.856747459
 20
-52.6754446916
 10
580.8401108297
 20
-51.023866283
 10
576.6753214539
 20
-49.6668666192
 10
572.3705321024
 20
-48.6071020906
 10
567.9341696024
 20
-47.8466472362
 10
563.3749183419
 20
-47.386990682
 10
558.7017032694
 20
-47.2290322273
 10
553.9236724227
 20
-47.3730810832
 10
549.0501790217
 20
-47.8188552674
 10
544.0907631586
 20
-48.5654821558
 10
539.0551331228
 20
-49.6115001914
 10
533.9531463965
 20
-50.9548617446
 10
528.7947903584
 20
-52.5929371222
 10
523.5901627327
 20
-54.5225197147
 10
518.3494518223
 20
-56.7398322735
 10
513.082916565
 20
-59.2405343053
 10
507.8008664508
 20
-62.0197305682
 10
502.5136413408
 20
-65.0719806552
 10
497.2315912266
 20
-68.3913096434
 10
491.9650559693
 20
-71.9712197903
 10
486.7243450589
 20
-75.8047032538
 10
481.5197174332
 20
-79.8842558099
 10
476.3613613951
 20
-84.201891543
 10
471.2593746688
 20
-88.7491584784
 10
466.223744633
 20
-93.5171551274
 10
461.2643287698
 20
-98.4965479128
 10
456.3908353689
 20
-103.6775894393
 10
451.6128045222
 20
-109.0501375748
 10
446.9395894497
 20
-114.6036753041
 10
442.3803381892
 20
-120.3273313163
 10
437.9439756892
 20
-126.2099012859
 10
433.6391863377
 20
-132.239869806
 10
429.4743969619
 20
-138.40543293
 10
425.4577603326
 20
-144.6945212786
 10
421.5971392046
 20
-151.094823666
 10
417.9000909251
 20
-157.5938111998
 10
414.3738526398
 20
-164.1787618065
 10
411.0253271256
 20
-170.8367851363
 10
407.8610692785
 20
-177.5548477957
 10
404.8872732818
 20
-184.3197988617
 10
402.1097604809
 20
-191.1183956247
 10
399.5339679874
 20
-197.9373295125
 10
397.1649380362
 20
-204.7632521417
 10
395.0073081146
 20
-211.5828014482
 10
393.0653018845
 20
-218.382627844
 10
391.3427209143
 20
-225.1494203496
 10
389.8429372372
 20
-231.8699326509
 10
388.5688867501
 20
-238.5310090295
 10
387.5230634667
 20
-245.1196101155
 10
386.7075146351
 20
-251.622838413
 10
386.1238367306
 20
-258.0279635472
 10
385.7731723299
 20
-264.3224471847
 10
385.6562078753
 20
-270.4939675784
 10
385.7731723299
 20
-276.5304436872
 10
386.1238367306
 20
-282.4200588257
 10
386.7075146351
 20
-288.1512837956
 10
387.5230634667
 20
-293.712899455
 10
388.5688867501
 20
-299.09401868
 10
389.8429372372
 20
-304.284107677
 10
391.3427209143
 20
-309.2730066031
 10
393.0653018845
 20
-314.0509494544
 10
395.0073081146
 20
-318.6085831833
 10
397.1649380362
 20
-322.9369860079
 10
399.5339679874
 20
-327.0276848762
 10
402.1097604809
 20
-330.8726720533
 10
404.8872732818
 20
-334.4644207961
 10
407.8610692785
 20
-337.7959000878
 10
411.0253271256
 20
-340.8605884012
 10
414.3738526398
 20
-343.6524864651
 10
417.9000909251
 20
-346.1661290078
 10
421.5971392046
 20
-348.3965954561
 10
425.4577603326
 20
-350.3395195672
 10
429.4743969619
 20
-351.9910979758
 10
433.6391863377
 20
-353.3480976396
 10
437.9439756892
 20
-354.4078621682
 10
442.3803381892
 20
-355.1683170226
 10
446.9395894497
 20
-355.6279735768
 10
451.6128045222
 20
-355.7859320315
 10
456.3908353689
 20
-355.6418831755
 10
461.2643287698
 20
-355.1961089914
 10
466.223744633
 20
-354.449482103
 10
471.2593746688
 20
-353.4034640674
 10
476.3613613951
 20
-352.0601025142
 10
481.5197174332
 20
-350.4220271366
 10
486.7243450589
 20
-348.4924445441
 10
491.9650559693
 20
-346.2751319852
 10
497.2315912266
 20
-343.7744299535
 10
502.5136413408
 20
-340.9952336906
 10
507.8008664508
 20
-337.9429836036
 10
513.082916565
 20
-334.6236546154
 10
518.3494518223
 20
-331.0437444685
 10
523.5901627327
 20
-327.210261005
 10
528.7947903584
 20
-323.1307084489
 10
533.9531463965
 20
-318.8130727158
 10
539.0551331228
 20
-314.2658057804
 10
544.0907631586
 20
-309.4978091314
 10
549.0501790217
 20
-304.518416346
 10
553.9236724227
 20
-299.3373748195
 10
558.7017032694
 20
-293.964826684
 10
563.3749183419
 20
-288.4112889547
 10
567.9341696024
 20
-282.6876329425
 10
572.3705321024
 20
-276.8050629729
 10
576.6753214539
 20
-270.7750944528
 10
580.8401108297
 20
-264.6095313288
 10
584.856747459
 20
-258.3204429802
 10
588.717368587
 20
-251.9201405928
 10
592.4144168664
 20
-245.421153059
 10
595.9406551518
 20
-238.8362024522
 10
599.289180666
 20
-232.1781791225
 10
602.4534385131
 20
-225.4601164631
 10
605.4272345097
 20
-218.6951653971
 10
608.2047473107
 20
-211.896568634
 10
610.7805398041
 20
-205.0776347463
 10
613.1495697554
 20
-198.2517121171
 10
615.307199677
 20
-191.4321628106
 10
617.2492059071
 20
-184.6323364148
 10
618.9717868772
 20
-177.8655439092
 10
620.4715705544
 20
-171.1450316079
 10
621.7456210415
 20
-164.4839552293
 10
622.7914443249
 20
-157.8953541433
 10
623.6069931565
 20
-151.3921258458
 10
624.190671061
 20
-144.9870007116
 10
624.5413354616
 20
-138.692517074
 10
624.6582999163
 20
-132.5209966804
  0
ARC
  5
188
330
1F
100
AcDbEntity
  8
0
  6
Continuous
 62
     7
370
    25
100
AcDbCircle
 10
450.2014197383
 20
-298.3415306934
 30
0.0
 40
58.63287495480886
100
AcDbArc
 50
216.438395098
 51
263.7566188203
  0
ARC
  5
189
330
1F
100
AcDbEntity
  8
0
  6
Continuous
 62
     7
370
    25
100
AcDbCircle
 10
561.5084569746
 20
-105.5288273974
 30
0.0
 40
58.67539610596523
100
AcDbArc
 50
35.9920319255
 51
83.9296821213
  0
ARC
  5
18A
330
1F
100
AcDbEntity
  8
0
  6
Continuous
 62
     7
370
    25
100
AcDbCircle
 10
578.3705618791
 20
-116.5394182587
 30
0.0
 40
59.81059142597369
100
AcDbArc
 50
35.9109497709
 51
59.7127974323
  0
ARC
  5
18B
330
1F
100
AcDbEntity
  8
0
  6
Continuous
 62
     7
370
    25
100
AcDbCircle
 10
468.2378500392
 20
-307.2140287967
 30
0.0
 40
59.99580439841917
100
AcDbArc
 50
240.340153203
 51
263.3447696417
  0
LWPOLYLINE
  5
18C
330
1F
100
AcDbEntity
  8
0
  6
Continuous
 62
     7
370
    25
100
AcDbPolyline
 90
       38
 70
   128
 43
0.0
 10
423.3176010049
 20
-188.5326232281
 10
423.1955479569
 20
-190.2590357573
 10
422.8329000568
 20
-192.0767019911
 10
422.2400900245
 20
-193.9333309812
 10
421.4341719253
 20
-195.7755108919
 10
420.4383305555
 20
-197.5502455614
 10
419.2812144582
 20
-199.2064791043
 10
417.9961117568
 20
-200.6965646972
 10
416.6199925163
 20
-201.9776352906
 10
415.1924451816
 20
-203.0128368159
 10
413.7545376906
 20
-203.7723884099
 10
412.3476360236
 20
-204.2344391564
 10
411.0122141801
 20
-204.3856966965
 10
409.7866898153
 20
-204.2218096262
 10
408.7063190336
 20
-203.7474926781
 10
407.8021821356
 20
-202.9763910873
 10
407.1002894935
 20
-201.9306880426
 10
406.6208332808
 20
-200.6404665166
 10
406.3776065798
 20
-199.1428438336
 10
406.3776065798
 20
-197.4809038714
 10
406.6208332808
 20
-195.7024576169
 10
407.1002894935
 20
-193.8586677308
 10
407.8021821356
 20
-192.0025766911
 10
408.7063190336
 20
-190.1875808577
 10
409.7866898153
 20
-188.4658943562
 10
411.0122141801
 20
-186.8870469725
 10
412.3476360236
 20
-185.4964592712
 10
413.7545376906
 20
-184.3341359287
 10
415.1924451816
 20
-183.4335148714
 10
416.6199925163
 20
-182.8205053272
 10
417.9961117568
 20
-182.5127424647
 10
419.2812144582
 20
-182.5190800611
 10
420.4383305555
 20
-182.8393357952
 10
421.4341719253
 20
-183.4642964927
 10
422.2400900245
 20
-184.3759831722
 10
422.8329000568
 20
-185.5481682678
 10
423.1955479569
 20
-186.9471301485
 10
423.3176010049
 20
-188.5326232281
  0
LWPOLYLINE
  5
18D
330
1F
100
AcDbEntity
  8
0
  6
Continuous
 62
     7
370
    25
100
AcDbPolyline
 90
       38
 70
   128
 43
0.0
 10
423.3176010049
 20
-308.9723929812
 10
423.1955479569
 20
-310.6988055105
 10
422.8329000568
 20
-312.5164717442
 10
422.2400900245
 20
-314.3731007343
 10
421.4341719253
 20
-316.2152806451
 10
420.4383305555
 20
-317.9900153146
 10
419.2812144582
 20
-319.6462488575
 10
417.9961117568
 20
-321.1363344504
 10
416.6199925163
 20
-322.4174050437
 10
415.1924451816
 20
-323.452606569
 10
413.7545376906
 20
-324.2121581631
 10
412.3476360236
 20
-324.6742089095
 10
411.0122141801
 20
-324.8254664496
 10
409.7866898153
 20
-324.6615793793
 10
408.7063190336
 20
-324.1872624313
 10
407.8021821355
 20
-323.4161608405
 10
407.1002894935
 20
-322.3704577957
 10
406.6208332808
 20
-321.0802362697
 10
406.3776065798
 20
-319.5826135867
 10
406.3776065798
 20
-317.9206736246
 10
406.6208332808
 20
-316.14222737
 10
407.1002894935
 20
-314.2984374839
 10
407.8021821355
 20
-312.4423464443
 10
408.7063190336
 20
-310.6273506109
 10
409.7866898153
 20
-308.9056641093
 10
411.0122141801
 20
-307.3268167256
 10
412.3476360236
 20
-305.9362290244
 10
413.7545376906
 20
-304.7739056819
 10
415.1924451816
 20
-303.8732846246
 10
416.6199925163
 20
-303.2602750804
 10
417.9961117568
 20
-302.9525122179
 10
419.2812144582
 20
-302.9588498142
 10
420.4383305555
 20
-303.2791055484
 10
421.4341719253
 20
-303.9040662459
 10
422.2400900245
 20
-304.8157529254
 10
422.8329000568
 20
-305.987938021
 10
423.1955479569
 20
-307.3868999017
 10
423.3176010049
 20
-308.9723929812
  0
LWPOLYLINE
  5
18E
330
1F
100
AcDbEntity
  8
0
  6
Continuous
 62
     7
370
    25
100
AcDbPolyline
 90
       38
 70
   128
 43
0.0
 10
513.64253527
 20
-317.0488032116
 10
513.520482222
 20
-318.7752157409
 10
513.1578343219
 20
-320.5928819746
 10
512.5650242896
 20
-322.4495109647
 10
511.7591061904
 20
-324.2916908755
 10
510.7632648206
 20
-326.0664255449
 10
509.6061487233
 20
-327.7226590879
 10
508.321046022
 20
-329.2127446808
 10
506.9449267814
 20
-330.4938152741
 10
505.5173794468
 20
-331.5290167994
 10
504.0794719557
 20
-332.2885683935
 10
502.6725702887
 20
-332.7506191399
 10
501.3371484453
 20
-332.90187668
 10
500.1116240804
 20
-332.7379896097
 10
499.0312532987
 20
-332.2636726617
 10
498.1271164007
 20
-331.4925710709
 10
497.4252237586
 20
-330.4468680261
 10
496.9457675459
 20
-329.1566465001
 10
496.7025408449
 20
-327.6590238171
 10
496.7025408449
 20
-325.9970838549
 10
496.9457675459
 20
-324.2186376004
 10
497.4252237586
 20
-322.3748477143
 10
498.1271164007
 20
-320.5187566747
 10
499.0312532987
 20
-318.7037608413
 10
500.1116240804
 20
-316.9820743397
 10
501.3371484453
 20
-315.403226956
 10
502.6725702887
 20
-314.0126392548
 10
504.0794719557
 20
-312.8503159123
 10
505.5173794468
 20
-311.9496948549
 10
506.9449267814
 20
-311.3366853108
 10
508.321046022
 20
-311.0289224483
 10
509.6061487233
 20
-311.0352600446
 10
510.7632648206
 20
-311.3555157788
 10
511.7591061904
 20
-311.9804764763
 10
512.5650242896
 20
-312.8921631557
 10
513.1578343219
 20
-314.0643482513
 10
513.520482222
 20
-315.463310132
 10
513.64253527
 20
-317.0488032116
  0
LWPOLYLINE
  5
18F
330
1F
100
AcDbEntity
  8
0
  6
Continuous
 62
     7
370
    25
100
AcDbPolyline
 90
       38
 70
   128
 43
0.0
 10
617.940785495
 20
-136.3989352115
 10
617.818732447
 20
-138.1253477408
 10
617.456084547
 20
-139.9430139745
 10
616.8632745147
 20
-141.7996429646
 10
616.0573564154
 20
-143.6418228754
 10
615.0615150456
 20
-145.4165575449
 10
613.9043989484
 20
-147.0727910878
 10
612.619296247
 20
-148.5628766807
 10
611.2431770064
 20
-149.8439472741
 10
609.8156296718
 20
-150.8791487993
 10
608.3777221807
 20
-151.6387003934
 10
606.9708205137
 20
-152.1007511398
 10
605.6353986703
 20
-152.2520086799
 10
604.4098743054
 20
-152.0881216096
 10
603.3295035238
 20
-151.6138046616
 10
602.4253666257
 20
-150.8427030708
 10
601.7234739836
 20
-149.797000026
 10
601.244017771
 20
-148.5067785001
 10
601.0007910699
 20
-147.009155817
 10
601.0007910699
 20
-145.3472158549
 10
601.244017771
 20
-143.5687696004
 10
601.7234739836
 20
-141.7249797142
 10
602.4253666257
 20
-139.8688886746
 10
603.3295035238
 20
-138.0538928412
 10
604.4098743054
 20
-136.3322063396
 10
605.6353986703
 20
-134.7533589559
 10
606.9708205137
 20
-133.3627712547
 10
608.3777221807
 20
-132.2004479122
 10
609.8156296718
 20
-131.2998268549
 10
611.2431770064
 20
-130.6868173107
 10
612.619296247
 20
-130.3790544482
 10
613.9043989484
 20
-130.3853920445
 10
615.0615150456
 20
-130.7056477787
 10
616.0573564154
 20
-131.3306084762
 10
616.8632745147
 20
-132.2422951557
 10
617.456084547
 20
-133.4144802513
 10
617.818732447
 20
-134.813442132
 10
617.940785495
 20
-136.3989352115
  0
LWPOLYLINE
  5
190
330
1F
100
AcDbEntity
  8
0
  6
Continuous
 62
     7
370
    25
100
AcDbPolyline
 90
       38
 70
   128
 43
0.0
 10
565.7916603825
 20
-62.2000841028
 10
565.6696073345
 20
-63.9264966321
 10
565.3069594345
 20
-65.7441628658
 10
564.7141494022
 20
-67.6007918559
 10
563.9082313029
 20
-69.4429717667
 10
562.9123899331
 20
-71.2177064361
 10
561.7552738358
 20
-72.8739399791
 10
560.4701711345
 20
-74.364025572
 10
559.0940518939
 20
-75.6450961653
 10
557.6665045593
 20
-76.6802976906
 10
556.2285970682
 20
-77.4398492847
 10
554.8216954012
 20
-77.9019000311
 10
553.4862735578
 20
-78.0531575712
 10
552.2607491929
 20
-77.8892705009
 10
551.1803784113
 20
-77.4149535529
 10
550.2762415132
 20
-76.6438519621
 10
549.5743488711
 20
-75.5981489173
 10
549.0948926584
 20
-74.3079273913
 10
548.8516659574
 20
-72.8103047083
 10
548.8516659574
 20
-71.1483647461
 10
549.0948926584
 20
-69.3699184916
 10
549.5743488711
 20
-67.5261286055
 10
550.2762415132
 20
-65.6700375659
 10
551.1803784113
 20
-63.8550417325
 10
552.2607491929
 20
-62.1333552309
 10
553.4862735578
 20
-60.5545078472
 10
554.8216954012
 20
-59.163920146
 10
556.2285970682
 20
-58.0015968035
 10
557.6665045593
 20
-57.1009757461
 10
559.0940518939
 20
-56.487966202
 10
560.4701711345
 20
-56.1802033395
 10
561.7552738358
 20
-56.1865409358
 10
562.9123899331
 20
-56.50679667
 10
563.9082313029
 20
-57.1317573675
 10
564.7141494022
 20
-58.0434440469
 10
565.3069594345
 20
-59.2156291425
 10
565.6696073345
 20
-60.6145910232
 10
565.7916603825
 20
-62.2000841028
  0
LWPOLYLINE
  5
191
330
1F
100
AcDbEntity
  8
0
  6
Continuous
 62
     7
370
    25
100
AcDbPolyline
 90
       38
 70
   128
 43
0.0
 10
513.64253527
 20
-76.1692637053
 10
513.520482222
 20
-77.8956762346
 10
513.157834322
 20
-79.7133424683
 10
512.5650242896
 20
-81.5699714584
 10
511.7591061904
 20
-83.4121513692
 10
510.7632648206
 20
-85.1868860386
 10
509.6061487233
 20
-86.8431195816
 10
508.321046022
 20
-88.3332051745
 10
506.9449267814
 20
-89.6142757678
 10
505.5173794468
 20
-90.6494772931
 10
504.0794719557
 20
-91.4090288872
 10
502.6725702887
 20
-91.8710796336
 10
501.3371484453
 20
-92.0223371737
 10
500.1116240804
 20
-91.8584501034
 10
499.0312532987
 20
-91.3841331554
 10
498.1271164007
 20
-90.6130315645
 10
497.4252237586
 20
-89.5673285198
 10
496.9457675459
 20
-88.2771069938
 10
496.7025408449
 20
-86.7794843108
 10
496.7025408449
 20
-85.1175443486
 10
496.9457675459
 20
-83.3390980941
 10
497.4252237586
 20
-81.495308208
 10
498.1271164007
 20
-79.6392171683
 10
499.0312532987
 20
-77.8242213349
 10
500.1116240804
 20
-76.1025348334
 10
501.3371484453
 20
-74.5236874497
 10
502.6725702887
 20
-73.1330997484
 10
504.0794719557
 20
-71.970776406
 10
505.5173794468
 20
-71.0701553486
 10
506.9449267814
 20
-70.4571458045
 10
508.321046022
 20
-70.1493829419
 10
509.6061487233
 20
-70.1557205383
 10
510.7632648206
 20
-70.4759762724
 10
511.7591061904
 20
-71.1009369699
 10
512.5650242896
 20
-72.0126236494
 10
513.157834322
 20
-73.184808745
 10
513.520482222
 20
-74.5837706257
 10
513.64253527
 20
-76.1692637053
  0
LWPOLYLINE
  5
192
330
1F
100
AcDbEntity
  8
0
  6
Continuous
 62
     7
370
    25
100
AcDbPolyline
 90
      121
 70
   128
 43
0.0
 10
590.0100676382
 20
-152.52299542
 10
589.893779806
 20
-157.7182602608
 10
589.5452350462
 20
-163.033548315
 10
588.9653886958
 20
-168.4542907474
 10
588.1558300734
 20
-173.96562968
 10
587.1187781229
 20
-179.5524589156
 10
585.8570753315
 20
-185.1994653439
 10
584.3741799389
 20
-190.8911709126
 10
582.6741564583
 20
-196.6119750524
 10
580.761664536
 20
-202.3461974368
 10
578.6419461793
 20
-208.0781209609
 10
576.3208113889
 20
-213.7920348206
 10
573.8046222339
 20
-219.4722775753
 10
571.1002754139
 20
-225.1032800745
 10
568.2151833556
 20
-230.6696081315
 10
565.1572538958
 20
-236.1560048283
 10
561.9348686065
 20
-241.5474323327
 10
558.5568598218
 20
-246.8291131167
 10
555.0324864291
 20
-251.9865704605
 10
551.3714084908
 20
-257.0056681319
 10
547.583660767
 20
-261.8726491331
 10
543.679625211
 20
-266.5741734075
 10
539.6700025129
 20
-271.0973544038
 10
535.5657827698
 20
-275.4297943974
 10
531.3782153627
 20
-279.5596184713
 10
527.1187781229
 20
-283.4755070648
 10
522.7991458716
 20
-287.1667269995
 10
518.4311584207
 20
-290.6231608981
 10
514.0267881202
 20
-293.8353349156
 10
509.5981070429
 20
-296.7944447062
 10
505.1572538958
 20
-299.4923795557
 10
500.7164007487
 20
-301.9217446122
 10
496.2877196714
 20
-304.0758811549
 10
491.8833493708
 20
-305.9488848454
 10
487.51536192
 20
-307.5356219107
 10
483.1957296687
 20
-308.8317432147
 10
478.9362924289
 20
-309.8336961791
 10
474.7487250218
 20
-310.5387345205
 10
470.6445052787
 20
-310.9449257777
 10
466.6348825806
 20
-311.0511566088
 10
462.7308470246
 20
-310.8571358425
 10
458.9430993008
 20
-310.3633952761
 10
455.2820213625
 20
-309.5712882182
 10
451.7576479698
 20
-308.4829857793
 10
448.3796391851
 20
-307.1014709207
 10
445.1572538958
 20
-305.4305302785
 10
442.0993244359
 20
-303.474743785
 10
439.2142323776
 20
-301.2394721149
 10
436.5098855577
 20
-298.7308419926
 10
433.9936964027
 20
-295.9557293988
 10
431.6725616123
 20
-292.9217407242
 10
429.5528432556
 20
-289.6371919209
 10
427.6403513332
 20
-286.111085709
 10
425.9403278527
 20
-282.3530869003
 10
424.4574324601
 20
-278.3734959085
 10
423.1957296687
 20
-274.1832205158
 10
422.1586777182
 20
-269.7937459758
 10
421.3491190957
 20
-265.2171035332
 10
420.7692727454
 20
-260.4658374466
 10
420.4207279856
 20
-255.5529706063
 10
420.3044401534
 20
-250.4919688388
 10
420.4207279856
 20
-245.296703998
 10
420.7692727454
 20
-239.9814159438
 10
421.3491190957
 20
-234.5606735114
 10
422.1586777182
 20
-229.0493345788
 10
423.1957296687
 20
-223.4625053431
 10
424.4574324601
 20
-217.8154989149
 10
425.9403278527
 20
-212.1237933462
 10
427.6403513332
 20
-206.4029892064
 10
429.5528432556
 20
-200.668766822
 10
431.6725616123
 20
-194.9368432979
 10
433.9936964027
 20
-189.2229294381
 10
436.5098855577
 20
-183.5426866834
 10
439.2142323776
 20
-177.9116841843
 10
442.0993244359
 20
-172.3453561273
 10
445.1572538958
 20
-166.8589594305
 10
448.3796391851
 20
-161.4675319261
 10
451.7576479698
 20
-156.1858511421
 10
455.2820213625
 20
-151.0283937983
 10
458.9430993008
 20
-146.0092961269
 10
462.7308470246
 20
-141.1423151257
 10
466.6348825806
 20
-136.4407908513
 10
470.6445052787
 20
-131.917609855
 10
474.7487250218
 20
-127.5851698614
 10
478.9362924289
 20
-123.4553457875
 10
483.1957296687
 20
-119.539457194
 10
487.51536192
 20
-115.8482372593
 10
491.8833493708
 20
-112.3918033607
 10
496.2877196714
 20
-109.1796293432
 10
500.7164007487
 20
-106.2205195526
 10
505.1572538958
 20
-103.5225847031
 10
509.5981070429
 20
-101.0932196466
 10
514.0267881202
 20
-98.9390831038
 10
518.4311584207
 20
-97.0660794134
 10
522.7991458716
 20
-95.4793423481
 10
527.1187781229
 20
-94.1832210441
 10
531.3782153627
 20
-93.1812680797
 10
535.5657827698
 20
-92.4762297383
 10
539.6700025129
 20
-92.0700384811
 10
543.679625211
 20
-91.96380765
 10
547.583660767
 20
-92.1578284163
 10
551.3714084908
 20
-92.6515689827
 10
555.0324864291
 20
-93.4436760406
 10
558.5568598218
 20
-94.5319784795
 10
561.9348686065
 20
-95.9134933381
 10
565.1572538958
 20
-97.5844339803
 10
568.2151833556
 20
-99.5402204738
 10
571.1002754139
 20
-101.7754921439
 10
573.8046222339
 20
-104.2841222662
 10
576.3208113889
 20
-107.05923486
 10
578.6419461793
 20
-110.0932235346
 10
580.761664536
 20
-113.3777723378
 10
582.6741564583
 20
-116.9038785498
 10
584.3741799389
 20
-120.6618773585
 10
585.8570753315
 20
-124.6414683503
 10
587.1187781229
 20
-128.831743743
 10
588.1558300734
 20
-133.221218283
 10
588.9653886958
 20
-137.7978607256
 10
589.5452350462
 20
-142.5491268121
 10
589.893779806
 20
-147.4619936525
 10
590.0100676382
 20
-152.52299542
  0
LWPOLYLINE
  5
193
330
1F
100
AcDbEntity
  8
0
  6
Continuous
 62
     7
370
    25
100
AcDbPolyline
 90
       38
 70
   128
 43
0.0
 10
603.9674695352
 20
-204.6854436889
 10
603.8454164871
 20
-206.4118562181
 10
603.4827685871
 20
-208.2295224519
 10
602.8899585548
 20
-210.086151442
 10
602.0840404555
 20
-211.9283313527
 10
601.0881990857
 20
-213.7030660222
 10
599.9310829885
 20
-215.3592995651
 10
598.6459802871
 20
-216.849385158
 10
597.2698610466
 20
-218.1304557514
 10
595.8423137119
 20
-219.1656572766
 10
594.4044062208
 20
-219.9252088707
 10
592.9975045539
 20
-220.3872596172
 10
591.6620827104
 20
-220.5385171572
 10
590.4365583455
 20
-220.374630087
 10
589.3561875639
 20
-219.9003131389
 10
588.4520506658
 20
-219.1292115481
 10
587.7501580238
 20
-218.0835085033
 10
587.2707018111
 20
-216.7932869774
 10
587.0274751101
 20
-215.2956642944
 10
587.0274751101
 20
-213.6337243322
 10
587.2707018111
 20
-211.8552780777
 10
587.7501580238
 20
-210.0114881916
 10
588.4520506658
 20
-208.1553971519
 10
589.3561875639
 20
-206.3404013185
 10
590.4365583455
 20
-204.6187148169
 10
591.6620827104
 20
-203.0398674332
 10
592.9975045539
 20
-201.649279732
 10
594.4044062208
 20
-200.4869563895
 10
595.8423137119
 20
-199.5863353322
 10
597.2698610466
 20
-198.973325788
 10
598.6459802871
 20
-198.6655629255
 10
599.9310829885
 20
-198.6719005219
 10
601.0881990857
 20
-198.992156256
 10
602.0840404555
 20
-199.6171169535
 10
602.8899585548
 20
-200.528803633
 10
603.4827685871
 20
-201.7009887286
 10
603.8454164871
 20
-203.0999506093
 10
603.9674695352
 20
-204.6854436889
  0
LWPOLYLINE
  5
194
330
1F
100
AcDbEntity
  8
0
  6
Continuous
 62
     7
370
    25
100
AcDbPolyline
 90
       38
 70
   128
 43
0.0
 10
603.9674695352
 20
-84.2456739357
 10
603.8454164871
 20
-85.972086465
 10
603.4827685871
 20
-87.7897526987
 10
602.8899585548
 20
-89.6463816888
 10
602.0840404555
 20
-91.4885615996
 10
601.0881990857
 20
-93.263296269
 10
599.9310829885
 20
-94.919529812
 10
598.6459802871
 20
-96.4096154049
 10
597.2698610466
 20
-97.6906859982
 10
595.8423137119
 20
-98.7258875235
 10
594.4044062208
 20
-99.4854391175
 10
592.9975045539
 20
-99.947489864
 10
591.6620827104
 20
-100.0987474041
 10
590.4365583455
 20
-99.9348603338
 10
589.3561875639
 20
-99.4605433857
 10
588.4520506658
 20
-98.6894417949
 10
587.7501580238
 20
-97.6437387502
 10
587.2707018111
 20
-96.3535172242
 10
587.0274751101
 20
-94.8558945412
 10
587.0274751101
 20
-93.193954579
 10
587.2707018111
 20
-91.4155083245
 10
587.7501580238
 20
-89.5717184384
 10
588.4520506658
 20
-87.7156273987
 10
589.3561875639
 20
-85.9006315653
 10
590.4365583455
 20
-84.1789450638
 10
591.6620827104
 20
-82.6000976801
 10
592.9975045539
 20
-81.2095099788
 10
594.4044062208
 20
-80.0471866364
 10
595.8423137119
 20
-79.146565579
 10
597.2698610466
 20
-78.5335560348
 10
598.6459802871
 20
-78.2257931723
 10
599.9310829885
 20
-78.2321307687
 10
601.0881990857
 20
-78.5523865028
 10
602.0840404555
 20
-79.1773472003
 10
602.8899585548
 20
-80.0890338798
 10
603.4827685871
 20
-81.2612189754
 10
603.8454164871
 20
-82.6601808561
 10
603.9674695352
 20
-84.2456739357
  0
LWPOLYLINE
  5
195
330
1F
100
AcDbEntity
  8
0
  6
Continuous
 62
     7
370
    25
100
AcDbPolyline
 90
       38
 70
   128
 43
0.0
 10
565.7916603825
 20
-270.8078845672
 10
565.6696073345
 20
-272.5342970964
 10
565.3069594345
 20
-274.3519633302
 10
564.7141494021
 20
-276.2085923203
 10
563.9082313029
 20
-278.0507722311
 10
562.9123899331
 20
-279.8255069005
 10
561.7552738358
 20
-281.4817404434
 10
560.4701711345
 20
-282.9718260364
 10
559.0940518939
 20
-284.2528966297
 10
557.6665045593
 20
-285.288098155
 10
556.2285970682
 20
-286.047649749
 10
554.8216954012
 20
-286.5097004955
 10
553.4862735578
 20
-286.6609580356
 10
552.2607491929
 20
-286.4970709653
 10
551.1803784112
 20
-286.0227540172
 10
550.2762415132
 20
-285.2516524264
 10
549.5743488711
 20
-284.2059493817
 10
549.0948926584
 20
-282.9157278557
 10
548.8516659574
 20
-281.4181051727
 10
548.8516659574
 20
-279.7561652105
 10
549.0948926584
 20
-277.977718956
 10
549.5743488711
 20
-276.1339290699
 10
550.2762415132
 20
-274.2778380302
 10
551.1803784112
 20
-272.4628421968
 10
552.2607491929
 20
-270.7411556953
 10
553.4862735578
 20
-269.1623083116
 10
554.8216954012
 20
-267.7717206103
 10
556.2285970682
 20
-266.6093972679
 10
557.6665045593
 20
-265.7087762105
 10
559.0940518939
 20
-265.0957666663
 10
560.4701711345
 20
-264.7880038038
 10
561.7552738358
 20
-264.7943414002
 10
562.9123899331
 20
-265.1145971343
 10
563.9082313029
 20
-265.7395578318
 10
564.7141494021
 20
-266.6512445113
 10
565.3069594345
 20
-267.8234296069
 10
565.6696073345
 20
-269.2223914876
 10
565.7916603825
 20
-270.8078845672
  0
LWPOLYLINE
  5
196
330
1F
100
AcDbEntity
  8
0
  6
Continuous
 62
     7
370
    25
100
AcDbPolyline
 90
       38
 70
   128
 43
0.0
 10
461.4934101575
 20
-331.0179828141
 10
461.3713571095
 20
-332.7443953434
 10
461.0087092094
 20
-334.5620615771
 10
460.4158991771
 20
-336.4186905672
 10
459.6099810779
 20
-338.260870478
 10
458.6141397081
 20
-340.0356051474
 10
457.4570236108
 20
-341.6918386904
 10
456.1719209094
 20
-343.1819242833
 10
454.7958016689
 20
-344.4629948766
 10
453.3682543343
 20
-345.4981964019
 10
451.9303468432
 20
-346.257747996
 10
450.5234451762
 20
-346.7197987424
 10
449.1880233328
 20
-346.8710562825
 10
447.9624989679
 20
-346.7071692122
 10
446.8821281862
 20
-346.2328522642
 10
445.9779912882
 20
-345.4617506733
 10
445.2760986461
 20
-344.4160476286
 10
444.7966424334
 20
-343.1258261026
 10
444.5534157324
 20
-341.6282034196
 10
444.5534157324
 20
-339.9662634574
 10
444.7966424334
 20
-338.1878172029
 10
445.2760986461
 20
-336.3440273168
 10
445.9779912882
 20
-334.4879362771
 10
446.8821281862
 20
-332.6729404437
 10
447.9624989679
 20
-330.9512539422
 10
449.1880233328
 20
-329.3724065585
 10
450.5234451762
 20
-327.9818188572
 10
451.9303468432
 20
-326.8194955148
 10
453.3682543343
 20
-325.9188744574
 10
454.7958016689
 20
-325.3058649133
 10
456.1719209094
 20
-324.9981020507
 10
457.4570236108
 20
-325.0044396471
 10
458.6141397081
 20
-325.3246953812
 10
459.6099810779
 20
-325.9496560787
 10
460.4158991771
 20
-326.8613427582
 10
461.0087092094
 20
-328.0335278538
 10
461.3713571095
 20
-329.4324897345
 10
461.4934101575
 20
-331.0179828141
  0
LWPOLYLINE
  5
197
330
1F
100
AcDbEntity
  8
0
  6
Continuous
 62
     7
370
    25
100
AcDbPolyline
 90
       38
 70
   128
 43
0.0
 10
409.344285045
 20
-256.8191317054
 10
409.222231997
 20
-258.5455442346
 10
408.8595840969
 20
-260.3632104684
 10
408.2667740646
 20
-262.2198394585
 10
407.4608559654
 20
-264.0620193693
 10
406.4650145956
 20
-265.8367540387
 10
405.3078984983
 20
-267.4929875817
 10
404.0227957969
 20
-268.9830731746
 10
402.6466765564
 20
-270.2641437679
 10
401.2191292217
 20
-271.2993452932
 10
399.7812217307
 20
-272.0588968872
 10
398.3743200637
 20
-272.5209476337
 10
397.0388982203
 20
-272.6722051738
 10
395.8133738554
 20
-272.5083181035
 10
394.7330030737
 20
-272.0340011554
 10
393.8288661757
 20
-271.2628995646
 10
393.1269735336
 20
-270.2171965199
 10
392.6475173209
 20
-268.9269749939
 10
392.4042906199
 20
-267.4293523109
 10
392.4042906199
 20
-265.7674123487
 10
392.6475173209
 20
-263.9889660942
 10
393.1269735336
 20
-262.1451762081
 10
393.8288661757
 20
-260.2890851684
 10
394.7330030737
 20
-258.474089335
 10
395.8133738554
 20
-256.7524028335
 10
397.0388982203
 20
-255.1735554498
 10
398.3743200637
 20
-253.7829677485
 10
399.7812217307
 20
-252.6206444061
 10
401.2191292217
 20
-251.7200233487
 10
402.6466765564
 20
-251.1070138045
 10
404.0227957969
 20
-250.799250942
 10
405.3078984983
 20
-250.8055885384
 10
406.4650145956
 20
-251.1258442725
 10
407.4608559654
 20
-251.75080497
 10
408.2667740646
 20
-252.6624916495
 10
408.8595840969
 20
-253.8346767451
 10
409.222231997
 20
-255.2336386258
 10
409.344285045
 20
-256.8191317054
  0
LWPOLYLINE
  5
198
330
1F
100
AcDbEntity
  8
0
  6
Continuous
 62
     7
370
    25
100
AcDbPolyline
 90
       38
 70
   128
 43
0.0
 10
461.4934101575
 20
-122.4101823497
 10
461.3713571095
 20
-124.136594879
 10
461.0087092094
 20
-125.9542611127
 10
460.4158991771
 20
-127.8108901028
 10
459.6099810779
 20
-129.6530700136
 10
458.6141397081
 20
-131.4278046831
 10
457.4570236108
 20
-133.084038226
 10
456.1719209095
 20
-134.5741238189
 10
454.7958016689
 20
-135.8551944123
 10
453.3682543343
 20
-136.8903959375
 10
451.9303468432
 20
-137.6499475316
 10
450.5234451762
 20
-138.111998278
 10
449.1880233328
 20
-138.2632558181
 10
447.9624989679
 20
-138.0993687478
 10
446.8821281862
 20
-137.6250517998
 10
445.9779912882
 20
-136.853950209
 10
445.2760986461
 20
-135.8082471642
 10
444.7966424334
 20
-134.5180256383
 10
444.5534157324
 20
-133.0204029552
 10
444.5534157324
 20
-131.3584629931
 10
444.7966424334
 20
-129.5800167386
 10
445.2760986461
 20
-127.7362268524
 10
445.9779912882
 20
-125.8801358128
 10
446.8821281862
 20
-124.0651399794
 10
447.9624989679
 20
-122.3434534778
 10
449.1880233328
 20
-120.7646060941
 10
450.5234451762
 20
-119.3740183929
 10
451.9303468432
 20
-118.2116950504
 10
453.3682543343
 20
-117.3110739931
 10
454.7958016689
 20
-116.6980644489
 10
456.1719209095
 20
-116.3903015864
 10
457.4570236108
 20
-116.3966391827
 10
458.6141397081
 20
-116.7168949169
 10
459.6099810779
 20
-117.3418556144
 10
460.4158991771
 20
-118.2535422939
 10
461.0087092094
 20
-119.4257273895
 10
461.3713571095
 20
-120.8246892702
 10
461.4934101575
 20
-122.4101823497
  0
ARC
  5
199
330
1F
100
AcDbEntity
  8
0
  6
Continuous
 62
     7
370
    25
100
AcDbCircle
 10
545.0240394459
 20
-134.0746898412
 30
0.0
 40
40.65882302066325
100
AcDbArc
 50
39.9578605723
 51
80.6291258395
  0
ARC
  5
19A
330
1F
100
AcDbEntity
  8
0
  6
Continuous
 62
     7
370
    25
100
AcDbCircle
 10
466.8958968883
 20
-269.3766914409
 30
0.0
 40
41.06591785042073
100
AcDbArc
 50
215.7703818597
 51
260.7935719348
  0
LWPOLYLINE
  5
19B
330
1F
100
AcDbEntity
  8
0
  6
Continuous
 62
     7
370
    25
100
AcDbPolyline
 90
        3
 70
   128
 43
0.0
 10
455.868044378
 20
-308.9347506643
 10
454.4373985084
 20
-307.4552979636
 10
453.124428835
 20
-305.9646260242
  0
ARC
  5
19C
330
1F
100
AcDbEntity
  8
0
  6
Continuous
 62
     7
370
    25
100
AcDbCircle
 10
561.8182915357
 20
-147.7944316915
 30
0.0
 40
44.27219279664837
100
AcDbArc
 50
74.6492545986
 51
83.4660152342
  0
LINE
  5
19D
330
1F
100
AcDbEntity
  8
0
  6
Continuous
 62
     7
370
    25
100
AcDbLine
 10
601.8098472373
 20
-200.5385534202
 30
0.0
 11
601.6888479716
 21
-200.4655589295
 31
0.0
  0
LINE
  5
19E
330
1F
100
AcDbEntity
  8
0
  6
Continuous
 62
     7
370
    25
100
AcDbLine
 10
590.6897419126
 20
-219.5186339019
 30
0.0
 11
590.9786607928
 21
-219.6687550316
 31
0.0
  0
LINE
  5
19F
330
1F
100
AcDbEntity
  8
0
  6
Continuous
 62
     7
370
    25
100
AcDbLine
 10
563.6340380846
 20
-266.6609942985
 30
0.0
 11
563.513038819
 21
-266.5879998078
 31
0.0
  0
LINE
  5
1A0
330
1F
100
AcDbEntity
  8
0
  6
Continuous
 62
     7
370
    25
100
AcDbLine
 10
552.51393276
 20
-285.6410747802
 30
0.0
 11
552.8028516402
 21
-285.7911959099
 31
0.0
  0
LINE
  5
1A1
330
1F
100
AcDbEntity
  8
0
  6
Continuous
 62
     7
370
    25
100
AcDbLine
 10
615.7831631971
 20
-132.2520449428
 30
0.0
 11
615.6621639315
 21
-132.1790504522
 31
0.0
  0
LINE
  5
1A2
330
1F
100
AcDbEntity
  8
0
  6
Continuous
 62
     7
370
    25
100
AcDbLine
 10
604.6630578725
 20
-151.2321254246
 30
0.0
 11
604.9519767527
 21
-151.3822465543
 31
0.0
  0
LINE
  5
1A3
330
1F
100
AcDbEntity
  8
0
  6
Continuous
 62
     7
370
    25
100
AcDbLine
 10
511.4849129721
 20
-312.9019129429
 30
0.0
 11
511.3639137065
 21
-312.8289184523
 31
0.0
  0
LINE
  5
1A4
330
1F
100
AcDbEntity
  8
0
  6
Continuous
 62
     7
370
    25
100
AcDbLine
 10
500.3648076475
 20
-331.8819934247
 30
0.0
 11
500.6537265277
 21
-332.0321145543
 31
0.0
  0
LINE
  5
1A5
330
1F
100
AcDbEntity
  8
0
  6
Continuous
 62
     7
370
    25
100
AcDbLine
 10
601.8098472373
 20
-80.098783667
 30
0.0
 11
601.6888479716
 21
-80.0257891764
 31
0.0
  0
LINE
  5
1A6
330
1F
100
AcDbEntity
  8
0
  6
Continuous
 62
     7
370
    25
100
AcDbLine
 10
590.6897419126
 20
-99.0788641487
 30
0.0
 11
590.9786607928
 21
-99.2289852784
 31
0.0
  0
LINE
  5
1A7
330
1F
100
AcDbEntity
  8
0
  6
Continuous
 62
     7
370
    25
100
AcDbLine
 10
459.3357878596
 20
-326.8710925454
 30
0.0
 11
459.214788594
 21
-326.7980980548
 31
0.0
  0
LINE
  5
1A8
330
1F
100
AcDbEntity
  8
0
  6
Continuous
 62
     7
370
    25
100
AcDbLine
 10
448.215682535
 20
-345.8511730271
 30
0.0
 11
448.5046014152
 21
-346.0012941568
 31
0.0
  0
LINE
  5
1A9
330
1F
100
AcDbEntity
  8
0
  6
Continuous
 62
     7
370
    25
100
AcDbLine
 10
563.6340380846
 20
-58.0531938341
 30
0.0
 11
563.513038819
 21
-57.9801993435
 31
0.0
  0
LINE
  5
1AA
330
1F
100
AcDbEntity
  8
0
  6
Continuous
 62
     7
370
    25
100
AcDbLine
 10
552.51393276
 20
-77.0332743159
 30
0.0
 11
552.8028516402
 21
-77.1833954455
 31
0.0
  0
LINE
  5
1AB
330
1F
100
AcDbEntity
  8
0
  6
Continuous
 62
     7
370
    25
100
AcDbLine
 10
421.159978707
 20
-304.8255027125
 30
0.0
 11
421.0389794413
 21
-304.7525082219
 31
0.0
  0
LINE
  5
1AC
330
1F
100
AcDbEntity
  8
0
  6
Continuous
 62
     7
370
    25
100
AcDbLine
 10
410.0398733823
 20
-323.8055831943
 30
0.0
 11
410.3287922626
 21
-323.955704324
 31
0.0
  0
LINE
  5
1AD
330
1F
100
AcDbEntity
  8
0
  6
Continuous
 62
     7
370
    25
100
AcDbLine
 10
511.4849129721
 20
-72.0223734366
 30
0.0
 11
511.3639137065
 21
-71.949378946
 31
0.0
  0
LINE
  5
1AE
330
1F
100
AcDbEntity
  8
0
  6
Continuous
 62
     7
370
    25
100
AcDbLine
 10
500.3648076475
 20
-91.0024539183
 30
0.0
 11
500.6537265277
 21
-91.152575048
 31
0.0
  0
LINE
  5
1AF
330
1F
100
AcDbEntity
  8
0
  6
Continuous
 62
     7
370
    25
100
AcDbLine
 10
407.1866627471
 20
-252.6722414367
 30
0.0
 11
407.0656634815
 21
-252.599246946
 31
0.0
  0
LINE
  5
1B0
330
1F
100
AcDbEntity
  8
0
  6
Continuous
 62
     7
370
    25
100
AcDbLine
 10
396.0665574225
 20
-271.6523219184
 30
0.0
 11
396.3554763027
 21
-271.8024430481
 31
0.0
  0
LINE
  5
1B1
330
1F
100
AcDbEntity
  8
0
  6
Continuous
 62
     7
370
    25
100
AcDbLine
 10
459.3357878596
 20
-118.263292081
 30
0.0
 11
459.214788594
 21
-118.1902975904
 31
0.0
  0
LINE
  5
1B2
330
1F
100
AcDbEntity
  8
0
  6
Continuous
 62
     7
370
    25
100
AcDbLine
 10
448.215682535
 20
-137.2433725628
 30
0.0
 11
448.5046014152
 21
-137.3934936925
 31
0.0
  0
LINE
  5
1B3
330
1F
100
AcDbEntity
  8
0
  6
Continuous
 62
     7
370
    25
100
AcDbLine
 10
421.159978707
 20
-184.3857329594
 30
0.0
 11
421.0389794413
 21
-184.3127384687
 31
0.0
  0
LINE
  5
1B4
330
1F
100
AcDbEntity
  8
0
  6
Continuous
 62
     7
370
    25
100
AcDbLine
 10
410.0398733823
 20
-203.3658134411
 30
0.0
 11
410.3287922626
 21
-203.5159345708
 31
0.0
  0
LWPOLYLINE
  5
1B5
330
1F
100
AcDbEntity
  8
0
  6
Continuous
 62
     1
370
    25
100
AcDbPolyline
 90
       49
 70
   128
 43
0.0
 10
626.0725134787
 20
-132.5209966804
 10
625.9548569266
 20
-138.7290349462
 10
625.6021175887
 20
-145.0607640491
 10
625.0149859688
 20
-151.5037893319
 10
624.1946114045
 20
-158.0454982703
 10
623.1425998176
 20
-164.6730851615
 10
621.8610105702
 20
-171.3735761933
 10
620.3523524335
 20
-178.1338548395
 10
618.6195786765
 20
-184.9406875375
 10
616.6660812853
 20
-191.7807495924
 10
614.4956843227
 20
-198.6406512617
 10
612.1126364428
 20
-205.5069639656
 10
609.5216025736
 20
-212.3662465746
 10
606.7276547857
 20
-219.2050717209
 10
603.736262363
 20
-226.0100520831
 10
600.5532810967
 20
-232.7678665926
 10
597.1849418221
 20
-239.4652865101
 10
593.6378382214
 20
-246.0892013216
 10
589.9189139166
 20
-252.6266444029
 10
586.0354488767
 20
-259.0648184021
 10
581.9950451667
 20
-265.3911202912
 10
577.8056120668
 20
-271.5931660373
 10
573.4753505889
 20
-277.6588148444
 10
569.0127374233
 20
-283.5761929204
 10
564.4265083447
 20
-289.3337167196
 10
559.7256411119
 20
-294.9201156189
 10
554.9193378934
 20
-300.3244539801
 10
550.0170072534
 20
-305.5361525571
 10
545.0282457343
 20
-310.5450092051
 10
539.962819071
 20
-315.341218852
 10
534.8306430742
 20
-319.9153926923
 10
529.6417642193
 20
-324.2585765658
 10
524.4063399804
 20
-328.3622684862
 10
519.1346189462
 20
-332.2184352838
 10
513.8369207584
 20
-335.819528331
 10
508.5236159098
 20
-339.1584983191
 10
503.2051054442
 20
-342.2288090575
 10
497.8918005956
 20
-345.0244502687
 10
492.5941024077
 20
-347.5399493539
 10
487.3223813736
 20
-349.7703821054
 10
482.0869571347
 20
-351.7113823464
 10
476.8980782798
 20
-353.3591504777
 10
471.765902283
 20
-354.7104609159
 10
466.7004756197
 20
-355.7626684072
 10
461.7117141006
 20
-356.5137132063
 10
456.8093834605
 20
-356.9621251075
 10
452.003080242
 20
-357.1070263235
 10
447.3022130093
 20
-356.9481332034
 10
443.8249749448
 20
-356.6266486675
  0
LWPOLYLINE
  5
1B6
330
1F
100
AcDbEntity
  8
0
  6
Continuous
 62
     1
370
    25
100
AcDbPolyline
 90
       14
 70
   128
 43
0.0
 10
608.9826454074
 20
-71.0468967548
 10
609.5216025736
 20
-71.7850217648
 10
612.1126364428
 20
-75.6527603453
 10
614.4956843227
 20
-79.7676645324
 10
616.6660812853
 20
-84.121679208
 10
618.6195786765
 20
-88.7062811839
 10
620.3523524335
 20
-93.5124958863
 10
621.8610105702
 20
-98.5309149244
 10
623.1425998176
 20
-103.7517145072
 10
624.1946114045
 20
-109.1646746744
 10
625.0149859688
 20
-114.7591993021
 10
625.6021175887
 20
-120.5243368458
 10
625.9548569266
 20
-126.448801778
 10
626.0725134787
 20
-132.5209966804
  0
LWPOLYLINE
  5
1B7
330
1F
100
AcDbEntity
  8
0
  6
Continuous
 62
     1
370
    25
100
AcDbPolyline
 90
       14
 70
   128
 43
0.0
 10
643.7501830084
 20
-142.7260980782
 10
643.6325264563
 20
-136.6539031758
 10
643.2797871184
 20
-130.7294382436
 10
642.6926554984
 20
-124.9643006999
 10
641.8722809342
 20
-119.3697760721
 10
640.8202693473
 20
-113.956815905
 10
639.5386800999
 20
-108.7360163222
 10
638.0300219631
 20
-103.7175972841
 10
636.2972482061
 20
-98.9113825816
 10
634.3437508149
 20
-94.3267806058
 10
632.1733538524
 20
-89.9727659302
 10
629.7903059724
 20
-85.8578617431
 10
627.1992721033
 20
-81.9901231626
 10
626.8129281329
 20
-81.4588823668
  0
LWPOLYLINE
  5
1B8
330
1F
100
AcDbEntity
  8
0
  6
Continuous
 62
     1
370
    25
100
AcDbPolyline
 90
       49
 70
   128
 43
0.0
 10
461.2846566744
 20
-366.8055520818
 10
464.979882539
 20
-367.1532346012
 10
469.6807497717
 20
-367.3121277213
 10
474.4870529902
 20
-367.1672265053
 10
479.3893836302
 20
-366.7188146041
 10
484.3781451494
 20
-365.967769805
 10
489.4435718126
 20
-364.9155623136
 10
494.5757478095
 20
-363.5642518755
 10
499.7646266643
 20
-361.9164837442
 10
505.0000509032
 20
-359.9754835032
 10
510.2717719374
 20
-357.7450507517
 10
515.5694701252
 20
-355.2295516665
 10
520.8827749738
 20
-352.4339104553
 10
526.2012854394
 20
-349.3635997169
 10
531.5145902881
 20
-346.0246297288
 10
536.8122884759
 20
-342.4235366816
 10
542.08400951
 20
-338.567369884
 10
547.3194337489
 20
-334.4636779636
 10
552.5083126038
 20
-330.1204940901
 10
557.6404886007
 20
-325.5463202498
 10
562.7059152639
 20
-320.7501106028
 10
567.694676783
 20
-315.7412539548
 10
572.5970074231
 20
-310.5295553779
 10
577.4033106416
 20
-305.1252170167
 10
582.1041778743
 20
-299.5388181174
 10
586.6904069529
 20
-293.7812943182
 10
591.1530201186
 20
-287.8639162422
 10
595.4832815965
 20
-281.798267435
 10
599.6727146964
 20
-275.596221689
 10
603.7131184063
 20
-269.2699197998
 10
607.5965834463
 20
-262.8317458007
 10
611.3155077511
 20
-256.2943027194
 10
614.8626113517
 20
-249.6703879079
 10
618.2309506263
 20
-242.9729679903
 10
621.4139318927
 20
-236.2151534809
 10
624.4053243153
 20
-229.4101731187
 10
627.1992721033
 20
-222.5713479724
 10
629.7903059724
 20
-215.7120653634
 10
632.1733538524
 20
-208.8457526595
 10
634.3437508149
 20
-201.9858509902
 10
636.2972482061
 20
-195.1457889353
 10
638.0300219631
 20
-188.3389562373
 10
639.5386800999
 20
-181.578677591
 10
640.8202693473
 20
-174.8781865593
 10
641.8722809342
 20
-168.250599668
 10
642.6926554984
 20
-161.7088907297
 10
643.2797871184
 20
-155.2658654469
 10
643.6325264563
 20
-148.934136344
 10
643.7501830084
 20
-142.7260980782
  0
LWPOLYLINE
  5
1B9
330
1F
100
AcDbEntity
  8
0
  6
Continuous
 62
     1
370
    25
100
AcDbPolyline
 90
       53
 70
   128
 43
0.0
 10
551.6442889374
 20
-93.9584563927
 10
551.1018344861
 20
-93.8688362449
 10
547.2943184764
 20
-93.4241393742
 10
543.3713297435
 20
-93.2818279031
 10
539.3438023607
 20
-93.4422984793
 10
535.2229617692
 20
-93.9051038425
 10
531.0202934907
 20
-94.6689540712
 10
526.7475111156
 20
-95.7317201776
 10
522.4165236547
 20
-97.0904400422
 10
518.0394023469
 20
-98.7413266689
 10
513.6283470142
 20
-100.6797787407
 10
509.195652059
 20
-102.9003934438
 10
504.7536721973
 20
-105.3969815269
 10
500.3147880236
 20
-108.1625845511
 10
495.8913715043
 20
-111.1894942849
 10
491.4957514945
 20
-114.4692741879
 10
487.1401793756
 20
-117.9927829253
 10
482.8367949082
 20
-121.7501998461
 10
478.5975923969
 20
-125.7310523557
 10
474.4343872592
 20
-129.924245104
 10
470.3587830946
 20
-134.3180909107
 10
466.3821393429
 20
-138.9003433395
 10
462.5155396235
 20
-143.6582308312
 10
458.7697608433
 20
-148.5784922997
 10
455.1552431595
 20
-153.647414094
 10
451.6820608813
 20
-158.8508682199
 10
448.3598943906
 20
-164.1743517174
 10
445.1980031613
 20
-169.6030270833
 10
442.2051999513
 20
-175.1217636255
 10
439.38982624
 20
-180.7151796357
 10
436.7597289788
 20
-186.36768526
 10
434.3222387205
 20
-192.0635259516
 10
432.0841491877
 20
-197.7868263807
 10
430.0516983373
 20
-203.5216346827
 10
428.2305509744
 20
-209.2519669182
 10
426.6257829633
 20
-214.9618516235
 10
425.2418670802
 20
-220.6353743258
 10
424.082660547
 20
-226.2567218997
 10
423.1513942802
 20
-231.8102266414
 10
422.4506638859
 20
-237.280409937
 10
421.9824224254
 20
-242.6520254046
 10
421.7479749716
 20
-247.9101013884
 10
421.7479749716
 20
-253.0399826877
 10
421.9824224254
 20
-258.0273714031
 10
422.4506638859
 20
-262.8583667878
 10
423.1513942802
 20
-267.5195039912
 10
424.082660547
 20
-271.9977915879
 10
425.2418670802
 20
-276.280747787
 10
426.6257829633
 20
-280.3564352216
 10
428.2305509744
 20
-284.2134942198
 10
430.0516983373
 20
-287.8411744663
 10
432.0841491877
 20
-291.2293649656
 10
433.5764034779
 20
-293.3812944947
  0
LWPOLYLINE
  5
1BA
330
1F
100
AcDbEntity
  8
0
  6
Continuous
 62
     1
370
    25
100
AcDbPolyline
 90
       53
 70
   128
 43
0.0
 10
453.124428835
 20
-305.9646260242
 10
451.9999082501
 20
-304.5737236209
 10
449.7618187173
 20
-301.4344663633
 10
447.729367867
 20
-298.046275864
 10
445.908220504
 20
-294.4185956176
 10
444.3034524929
 20
-290.5615366194
 10
442.9195366099
 20
-286.4858491848
 10
441.7603300767
 20
-282.2028929856
 10
440.8290638099
 20
-277.724605389
 10
440.1283334156
 20
-273.0634681856
 10
439.6600919551
 20
-268.2324728009
 10
439.4256445012
 20
-263.2450840855
 10
439.4256445012
 20
-258.1152027862
 10
439.6600919551
 20
-252.8571268024
 10
440.1283334156
 20
-247.4855113348
 10
440.8290638099
 20
-242.0153280391
 10
441.7603300767
 20
-236.4618232975
 10
442.9195366099
 20
-230.8404757236
 10
444.3034524929
 20
-225.1669530213
 10
445.908220504
 20
-219.457068316
 10
447.729367867
 20
-213.7267360805
 10
449.7618187173
 20
-207.9919277785
 10
451.9999082501
 20
-202.2686273493
 10
454.4373985084
 20
-196.5727866578
 10
457.0674957696
 20
-190.9202810335
 10
459.882869481
 20
-185.3268650233
 10
462.875672691
 20
-179.8081284811
 10
466.0375639203
 20
-174.3794531152
 10
469.359730411
 20
-169.0559696177
 10
472.8329126892
 20
-163.8525154918
 10
476.447430373
 20
-158.7835936975
 10
480.1932091532
 20
-153.8633322289
 10
484.0598088726
 20
-149.1054447373
 10
488.0364526243
 20
-144.5231923085
 10
492.1120567889
 20
-140.1293465017
 10
496.2752619266
 20
-135.9361537535
 10
500.5144644379
 20
-131.9553012439
 10
504.8178489052
 20
-128.197884323
 10
509.1734210241
 20
-124.6743755857
 10
513.5690410339
 20
-121.3945956827
 10
517.9924575533
 20
-118.3676859489
 10
522.431341727
 20
-115.6020829247
 10
526.8733215887
 20
-113.1054948416
 10
531.3060165438
 20
-110.8848801384
 10
535.7170718765
 20
-108.9464280667
 10
540.0941931844
 20
-107.29554144
 10
544.4251806453
 20
-105.9368215754
 10
548.6979630204
 20
-104.8740554689
 10
552.9006312988
 20
-104.1102052403
 10
557.0214718904
 20
-103.6473998771
 10
561.0489992732
 20
-103.4869293009
 10
564.9719880061
 20
-103.6292407719
 10
566.8561362321
 20
-103.8098073798
  0
LWPOLYLINE
  5
1BB
330
1F
100
AcDbEntity
  8
0
  6
Continuous
 62
     1
370
    25
100
AcDbPolyline
 90
       20
 70
   128
 43
0.0
 10
601.6888479716
 20
-200.4655589295
 10
601.1890091965
 20
-200.2252507459
 10
600.0783822386
 20
-199.9683781587
 10
598.8495873312
 20
-200.0160711784
 10
597.5399607858
 20
-200.3668806769
 10
596.1892949421
 20
-201.010147485
 10
594.8386290984
 20
-201.9263262662
 10
593.529002553
 20
-203.087579392
 10
592.3002076456
 20
-204.4586227737
 10
591.1895806877
 20
-205.9977979519
 10
590.2308675175
 20
-207.6583378678
 10
589.4531981495
 20
-209.3897878561
 10
588.8802016738
 20
-211.1395386853
 10
588.5292882986
 20
-212.8544250618
 10
588.4111203491
 20
-214.4823410307
 10
588.5292882986
 20
-215.9738231892
 10
588.8802016738
 20
-217.2835536066
 10
589.4531981495
 20
-218.3717367869
 10
590.2308675175
 20
-219.2053088348
 10
590.6897419126
 20
-219.5186339019
  0
LWPOLYLINE
  5
1BC
330
1F
100
AcDbEntity
  8
0
  6
Continuous
 62
     1
370
    25
100
AcDbPolyline
 90
       20
 70
   128
 43
0.0
 10
563.513038819
 20
-266.5879998078
 10
563.0132000439
 20
-266.3476916243
 10
561.902573086
 20
-266.090819037
 10
560.6737781786
 20
-266.1385120567
 10
559.3641516331
 20
-266.4893215552
 10
558.0134857895
 20
-267.1325883633
 10
556.6628199458
 20
-268.0487671446
 10
555.3531934004
 20
-269.2100202703
 10
554.124398493
 20
-270.581063652
 10
553.0137715351
 20
-272.1202388303
 10
552.0550583649
 20
-273.7807787461
 10
551.2773889968
 20
-275.5122287345
 10
550.7043925212
 20
-277.2619795637
 10
550.353479146
 20
-278.9768659401
 10
550.2353111964
 20
-280.6047819091
 10
550.353479146
 20
-282.0962640676
 10
550.7043925212
 20
-283.4059944849
 10
551.2773889968
 20
-284.4941776652
 10
552.0550583649
 20
-285.3277497131
 10
552.51393276
 20
-285.6410747802
  0
LWPOLYLINE
  5
1BD
330
1F
100
AcDbEntity
  8
0
  6
Continuous
 62
     1
370
    25
100
AcDbPolyline
 90
       20
 70
   128
 43
0.0
 10
615.6621639315
 20
-132.1790504522
 10
615.1623251564
 20
-131.9387422686
 10
614.0516981985
 20
-131.6818696814
 10
612.8229032911
 20
-131.7295627011
 10
611.5132767457
 20
-132.0803721996
 10
610.162610902
 20
-132.7236390076
 10
608.8119450583
 20
-133.6398177889
 10
607.5023185129
 20
-134.8010709147
 10
606.2735236055
 20
-136.1721142964
 10
605.1628966476
 20
-137.7112894746
 10
604.2041834774
 20
-139.3718293905
 10
603.4265141093
 20
-141.1032793788
 10
602.8535176337
 20
-142.853030208
 10
602.5026042585
 20
-144.5679165845
 10
602.3844363089
 20
-146.1958325534
 10
602.5026042585
 20
-147.6873147119
 10
602.8535176337
 20
-148.9970451293
 10
603.4265141093
 20
-150.0852283096
 10
604.2041834774
 20
-150.9188003575
 10
604.6630578725
 20
-151.2321254246
  0
LWPOLYLINE
  5
1BE
330
1F
100
AcDbEntity
  8
0
  6
Continuous
 62
     1
370
    25
100
AcDbPolyline
 90
       20
 70
   128
 43
0.0
 10
511.3639137065
 20
-312.8289184523
 10
510.8640749314
 20
-312.5886102687
 10
509.7534479735
 20
-312.3317376814
 10
508.5246530661
 20
-312.3794307012
 10
507.2150265206
 20
-312.7302401996
 10
505.864360677
 20
-313.3735070077
 10
504.5136948333
 20
-314.289685789
 10
503.2040682878
 20
-315.4509389148
 10
501.9752733804
 20
-316.8219822965
 10
500.8646464226
 20
-318.3611574747
 10
499.9059332524
 20
-320.0216973905
 10
499.1282638843
 20
-321.7531473789
 10
498.5552674087
 20
-323.5028982081
 10
498.2043540334
 20
-325.2177845845
 10
498.0861860839
 20
-326.8457005535
 10
498.2043540334
 20
-328.337182712
 10
498.5552674087
 20
-329.6469131294
 10
499.1282638843
 20
-330.7350963097
 10
499.9059332524
 20
-331.5686683576
 10
500.3648076475
 20
-331.8819934247
  0
LWPOLYLINE
  5
1BF
330
1F
100
AcDbEntity
  8
0
  6
Continuous
 62
     1
370
    25
100
AcDbPolyline
 90
       20
 70
   128
 43
0.0
 10
601.6888479716
 20
-80.0257891764
 10
601.1890091965
 20
-79.7854809928
 10
600.0783822386
 20
-79.5286084055
 10
598.8495873312
 20
-79.5763014252
 10
597.5399607858
 20
-79.9271109237
 10
596.1892949421
 20
-80.5703777318
 10
594.8386290985
 20
-81.4865565131
 10
593.529002553
 20
-82.6478096388
 10
592.3002076456
 20
-84.0188530205
 10
591.1895806877
 20
-85.5580281988
 10
590.2308675175
 20
-87.2185681146
 10
589.4531981495
 20
-88.950018103
 10
588.8802016738
 20
-90.6997689322
 10
588.5292882986
 20
-92.4146553086
 10
588.4111203491
 20
-94.0425712776
 10
588.5292882986
 20
-95.5340534361
 10
588.8802016738
 20
-96.8437838534
 10
589.4531981495
 20
-97.9319670337
 10
590.2308675175
 20
-98.7655390816
 10
590.6897419126
 20
-99.0788641487
  0
LWPOLYLINE
  5
1C0
330
1F
100
AcDbEntity
  8
0
  6
Continuous
 62
     1
370
    25
100
AcDbPolyline
 90
       20
 70
   128
 43
0.0
 10
459.214788594
 20
-326.7980980548
 10
458.7149498189
 20
-326.5577898712
 10
457.604322861
 20
-326.3009172839
 10
456.3755279536
 20
-326.3486103037
 10
455.0659014081
 20
-326.6994198021
 10
453.7152355645
 20
-327.3426866102
 10
452.3645697208
 20
-328.2588653915
 10
451.0549431753
 20
-329.4201185173
 10
449.8261482679
 20
-330.791161899
 10
448.7155213101
 20
-332.3303370772
 10
447.7568081398
 20
-333.990876993
 10
446.9791387718
 20
-335.7223269814
 10
446.4061422962
 20
-337.4720778106
 10
446.0552289209
 20
-339.186964187
 10
445.9370609714
 20
-340.814880156
 10
446.0552289209
 20
-342.3063623145
 10
446.4061422962
 20
-343.6160927319
 10
446.9791387718
 20
-344.7042759121
 10
447.7568081398
 20
-345.5378479601
 10
448.215682535
 20
-345.8511730271
  0
LWPOLYLINE
  5
1C1
330
1F
100
AcDbEntity
  8
0
  6
Continuous
 62
     1
370
    25
100
AcDbPolyline
 90
       20
 70
   128
 43
0.0
 10
563.513038819
 20
-57.9801993435
 10
563.0132000439
 20
-57.7398911599
 10
561.902573086
 20
-57.4830185726
 10
560.6737781786
 20
-57.5307115924
 10
559.3641516331
 20
-57.8815210908
 10
558.0134857895
 20
-58.5247878989
 10
556.6628199458
 20
-59.4409666802
 10
555.3531934004
 20
-60.602219806
 10
554.124398493
 20
-61.9732631877
 10
553.0137715351
 20
-63.5124383659
 10
552.0550583649
 20
-65.1729782817
 10
551.2773889968
 20
-66.9044282701
 10
550.7043925212
 20
-68.6541790993
 10
550.353479146
 20
-70.3690654757
 10
550.2353111964
 20
-71.9969814447
 10
550.353479146
 20
-73.4884636032
 10
550.7043925212
 20
-74.7981940206
 10
551.2773889968
 20
-75.8863772009
 10
552.0550583649
 20
-76.7199492488
 10
552.51393276
 20
-77.0332743159
  0
LWPOLYLINE
  5
1C2
330
1F
100
AcDbEntity
  8
0
  6
Continuous
 62
     1
370
    25
100
AcDbPolyline
 90
       20
 70
   128
 43
0.0
 10
421.0389794413
 20
-304.7525082219
 10
420.5391406662
 20
-304.5122000383
 10
419.4285137084
 20
-304.2553274511
 10
418.199718801
 20
-304.3030204708
 10
416.8900922555
 20
-304.6538299692
 10
415.5394264118
 20
-305.2970967773
 10
414.1887605682
 20
-306.2132755586
 10
412.8791340227
 20
-307.3745286844
 10
411.6503391153
 20
-308.7455720661
 10
410.5397121574
 20
-310.2847472443
 10
409.5809989872
 20
-311.9452871601
 10
408.8033296192
 20
-313.6767371485
 10
408.2303331436
 20
-315.4264879777
 10
407.8794197683
 20
-317.1413743542
 10
407.7612518188
 20
-318.7692903231
 10
407.8794197683
 20
-320.2607724816
 10
408.2303331436
 20
-321.570502899
 10
408.8033296192
 20
-322.6586860793
 10
409.5809989872
 20
-323.4922581272
 10
410.0398733823
 20
-323.8055831943
  0
LWPOLYLINE
  5
1C3
330
1F
100
AcDbEntity
  8
0
  6
Continuous
 62
     1
370
    25
100
AcDbPolyline
 90
       20
 70
   128
 43
0.0
 10
511.3639137065
 20
-71.949378946
 10
510.8640749314
 20
-71.7090707624
 10
509.7534479735
 20
-71.4521981751
 10
508.5246530661
 20
-71.4998911949
 10
507.2150265206
 20
-71.8507006933
 10
505.864360677
 20
-72.4939675014
 10
504.5136948333
 20
-73.4101462827
 10
503.2040682879
 20
-74.5713994085
 10
501.9752733805
 20
-75.9424427902
 10
500.8646464226
 20
-77.4816179684
 10
499.9059332524
 20
-79.1421578842
 10
499.1282638843
 20
-80.8736078726
 10
498.5552674087
 20
-82.6233587018
 10
498.2043540335
 20
-84.3382450782
 10
498.0861860839
 20
-85.9661610472
 10
498.2043540335
 20
-87.4576432057
 10
498.5552674087
 20
-88.7673736231
 10
499.1282638843
 20
-89.8555568033
 10
499.9059332524
 20
-90.6891288513
 10
500.3648076475
 20
-91.0024539183
  0
LWPOLYLINE
  5
1C4
330
1F
100
AcDbEntity
  8
0
  6
Continuous
 62
     1
370
    25
100
AcDbPolyline
 90
       20
 70
   128
 43
0.0
 10
407.0656634815
 20
-252.599246946
 10
406.5658247063
 20
-252.3589387625
 10
405.4551977485
 20
-252.1020661752
 10
404.2264028411
 20
-252.1497591949
 10
402.9167762956
 20
-252.5005686934
 10
401.566110452
 20
-253.1438355015
 10
400.2154446083
 20
-254.0600142828
 10
398.9058180628
 20
-255.2212674085
 10
397.6770231554
 20
-256.5923107902
 10
396.5663961976
 20
-258.1314859685
 10
395.6076830273
 20
-259.7920258843
 10
394.8300136593
 20
-261.5234758727
 10
394.2570171837
 20
-263.2732267019
 10
393.9061038084
 20
-264.9881130783
 10
393.7879358589
 20
-266.6160290473
 10
393.9061038084
 20
-268.1075112058
 10
394.2570171837
 20
-269.4172416231
 10
394.8300136593
 20
-270.5054248034
 10
395.6076830273
 20
-271.3389968513
 10
396.0665574225
 20
-271.6523219184
  0
LWPOLYLINE
  5
1C5
330
1F
100
AcDbEntity
  8
0
  6
Continuous
 62
     1
370
    25
100
AcDbPolyline
 90
       20
 70
   128
 43
0.0
 10
459.214788594
 20
-118.1902975904
 10
458.7149498189
 20
-117.9499894068
 10
457.604322861
 20
-117.6931168196
 10
456.3755279536
 20
-117.7408098393
 10
455.0659014081
 20
-118.0916193378
 10
453.7152355645
 20
-118.7348861458
 10
452.3645697208
 20
-119.6510649271
 10
451.0549431753
 20
-120.8123180529
 10
449.8261482679
 20
-122.1833614346
 10
448.7155213101
 20
-123.7225366128
 10
447.7568081399
 20
-125.3830765287
 10
446.9791387718
 20
-127.114526517
 10
446.4061422962
 20
-128.8642773462
 10
446.0552289209
 20
-130.5791637227
 10
445.9370609714
 20
-132.2070796916
 10
446.0552289209
 20
-133.6985618501
 10
446.4061422962
 20
-135.0082922675
 10
446.9791387718
 20
-136.0964754478
 10
447.7568081399
 20
-136.9300474957
 10
448.215682535
 20
-137.2433725628
  0
LWPOLYLINE
  5
1C6
330
1F
100
AcDbEntity
  8
0
  6
Continuous
 62
     1
370
    25
100
AcDbPolyline
 90
       20
 70
   128
 43
0.0
 10
421.0389794413
 20
-184.3127384687
 10
420.5391406662
 20
-184.0724302852
 10
419.4285137084
 20
-183.8155576979
 10
418.199718801
 20
-183.8632507176
 10
416.8900922555
 20
-184.2140602161
 10
415.5394264118
 20
-184.8573270242
 10
414.1887605682
 20
-185.7735058054
 10
412.8791340227
 20
-186.9347589312
 10
411.6503391153
 20
-188.3058023129
 10
410.5397121574
 20
-189.8449774912
 10
409.5809989872
 20
-191.505517407
 10
408.8033296192
 20
-193.2369673954
 10
408.2303331436
 20
-194.9867182246
 10
407.8794197683
 20
-196.701604601
 10
407.7612518188
 20
-198.32952057
 10
407.8794197683
 20
-199.8210027284
 10
408.2303331436
 20
-201.1307331458
 10
408.8033296192
 20
-202.2189163261
 10
409.5809989872
 20
-203.052488374
 10
410.0398733823
 20
-203.3658134411
  0
ENDSEC
  0
SECTION
  2
OBJECTS
  0
DICTIONARY
  5
C
330
0
100
AcDbDictionary
281
     1
  3
ACAD_GROUP
350
D
  3
ACAD_LAYOUT
350
1A
  3
ACAD_MLINESTYLE
350
17
  3
ACAD_PLOTSETTINGS
350
19
  3
ACAD_PLOTSTYLENAME
350
E
  3
ACAD_SCALELIST
350
47
  3
DWGPROPS
350
1C7
  0
DICTIONARY
  5
D
102
{ACAD_REACTORS
330
C
102
}
330
C
100
AcDbDictionary
281
     1
  0
DICTIONARY
  5
1A
102
{ACAD_REACTORS
330
C
102
}
330
C
100
AcDbDictionary
281
     1
  3
Layout1
350
1E
  3
Layout2
350
26
  3
Model
350
22
  0
DICTIONARY
  5
17
102
{ACAD_REACTORS
330
C
102
}
330
C
100
AcDbDictionary
281
     1
  3
Standard
350
18
  0
DICTIONARY
  5
19
102
{ACAD_REACTORS
330
C
102
}
330
C
100
AcDbDictionary
281
     1
  0
ACDBDICTIONARYWDFLT
  5
E
102
{ACAD_REACTORS
330
C
102
}
330
C
100
AcDbDictionary
281
     1
  3
Normal
350
F
100
AcDbDictionaryWithDefault
340
F
  0
DICTIONARY
  5
47
102
{ACAD_REACTORS
330
C
102
}
330
C
100
AcDbDictionary
281
     1
  3
A0
350
48
  3
A1
350
49
  3
A2
350
4A
  3
A3
350
4B
  3
A4
350
4C
  3
A5
350
4D
  3
A6
350
4E
  3
A7
350
4F
  3
A8
350
50
  3
A9
350
51
  3
B0
350
52
  3
B1
350
53
  3
B2
350
54
  3
B3
350
55
  3
B4
350
56
  3
B5
350
57
  3
B6
350
58
  3
B7
350
59
  3
B8
350
5A
  3
B9
350
5B
  3
C0
350
5C
  3
C1
350
5D
  3
C2
350
5E
  3
C3
350
5F
  3
C4
350
60
  3
C5
350
61
  3
C6
350
62
  3
C7
350
63
  3
C8
350
64
  3
C9
350
65
  3
D0
350
66
  3
D1
350
67
  3
D2
350
68
  0
XRECORD
  5
1C7
102
{ACAD_REACTORS
330
C
102
}
330
C
100
AcDbXrecord
280
     1
  1
DWGPROPS COOKIE
  2

  3

  4

  6

  7

  8
b.kav
  9

300
=
301
=
302
=
303
=
304
=
305
=
306
=
307
=
308
=
309
=
 40
0.0
 41
2459741.467522755
 42
2459741.467525081
  1

 90
        0
  0
LAYOUT
  5
1E
102
{ACAD_REACTORS
330
1A
102
}
330
1A
100
AcDbPlotSettings
  1

  2
none_device
  4

  6

 40
0.0
 41
0.0
 42
0.0
 43
0.0
 44
0.0
 45
0.0
 46
0.0
 47
0.0
 48
0.0
 49
0.0
140
0.0
141
0.0
142
1.0
143
1.0
 70
   688
 72
     1
 73
     0
 74
     5
  7

 75
    16
147
1.0
148
0.0
149
0.0
100
AcDbLayout
  1
Layout1
 70
     1
 71
     1
 10
0.0
 20
0.0
 11
420.0
 21
297.0
 12
0.0
 22
0.0
 32
0.0
 14
1.0000000000E+20
 24
1.0000000000E+20
 34
1.0000000000E+20
 15
-1.0000000000E+20
 25
-1.0000000000E+20
 35
-1.0000000000E+20
146
0.0
 13
0.0
 23
0.0
 33
0.0
 16
1.0
 26
0.0
 36
0.0
 17
0.0
 27
1.0
 37
0.0
 76
     0
330
1B
  0
LAYOUT
  5
26
102
{ACAD_REACTORS
330
1A
102
}
330
1A
100
AcDbPlotSettings
  1

  2
none_device
  4

  6

 40
0.0
 41
0.0
 42
0.0
 43
0.0
 44
0.0
 45
0.0
 46
0.0
 47
0.0
 48
0.0
 49
0.0
140
0.0
141
0.0
142
1.0
143
1.0
 70
   688
 72
     1
 73
     0
 74
     5
  7

 75
    16
147
1.0
148
0.0
149
0.0
100
AcDbLayout
  1
Layout2
 70
     1
 71
     2
 10
0.0
 20
0.0
 11
0.0
 21
0.0
 12
0.0
 22
0.0
 32
0.0
 14
0.0
 24
0.0
 34
0.0
 15
0.0
 25
0.0
 35
0.0
146
0.0
 13
0.0
 23
0.0
 33
0.0
 16
1.0
 26
0.0
 36
0.0
 17
0.0
 27
1.0
 37
0.0
 76
     0
330
23
  0
LAYOUT
  5
22
102
{ACAD_REACTORS
330
1A
102
}
330
1A
100
AcDbPlotSettings
  1

  2
none_device
  4
Letter_(8.50_x_11.00_Inches)
  6

 40
6.35
 41
6.35
 42
6.35000508
 43
6.35000508
 44
215.9
 45
279.4
 46
0.0
 47
0.0
 48
0.0
 49
0.0
140
0.0
141
0.0
142
1.0
143
1.0
 70
  1712
 72
     1
 73
     0
 74
     0
  7

 75
     0
147
1.0
148
0.0
149
0.0
100
AcDbLayout
  1
Model
 70
     1
 71
     0
 10
0.0
 20
0.0
 11
279.4
 21
215.9
 12
0.0
 22
0.0
 32
0.0
 14
0.0
 24
0.0
 34
0.0
 15
279.4
 25
215.9
 35
0.0
146
0.0
 13
0.0
 23
0.0
 33
0.0
 16
1.0
 26
0.0
 36
0.0
 17
0.0
 27
1.0
 37
0.0
 76
     0
330
1F
331
29
  0
MLINESTYLE
  5
18
102
{ACAD_REACTORS
330
17
102
}
330
17
100
AcDbMlineStyle
  2
Standard
 70
     0
  3

 62
   256
 51
90.0
 52
90.0
 71
     2
 49
0.5
 62
   256
  6
BYLAYER
 49
-0.5
 62
   256
  6
BYLAYER
  0
ACDBPLACEHOLDER
  5
F
102
{ACAD_REACTORS
330
E
102
}
330
E
  0
SCALE
  5
48
102
{ACAD_REACTORS
330
47
102
}
330
47
100
AcDbScale
 70
     0
300
1:1
140
1.0
141
1.0
290
     1
  0
SCALE
  5
49
102
{ACAD_REACTORS
330
47
102
}
330
47
100
AcDbScale
 70
     0
300
1:2
140
1.0
141
2.0
290
     0
  0
SCALE
  5
4A
102
{ACAD_REACTORS
330
47
102
}
330
47
100
AcDbScale
 70
     0
300
1:4
140
1.0
141
4.0
290
     0
  0
SCALE
  5
4B
102
{ACAD_REACTORS
330
47
102
}
330
47
100
AcDbScale
 70
     0
300
1:5
140
1.0
141
5.0
290
     0
  0
SCALE
  5
4C
102
{ACAD_REACTORS
330
47
102
}
330
47
100
AcDbScale
 70
     0
300
1:8
140
1.0
141
8.0
290
     0
  0
SCALE
  5
4D
102
{ACAD_REACTORS
330
47
102
}
330
47
100
AcDbScale
 70
     0
300
1:10
140
1.0
141
10.0
290
     0
  0
SCALE
  5
4E
102
{ACAD_REACTORS
330
47
102
}
330
47
100
AcDbScale
 70
     0
300
1:16
140
1.0
141
16.0
290
     0
  0
SCALE
  5
4F
102
{ACAD_REACTORS
330
47
102
}
330
47
100
AcDbScale
 70
     0
300
1:20
140
1.0
141
20.0
290
     0
  0
SCALE
  5
50
102
{ACAD_REACTORS
330
47
102
}
330
47
100
AcDbScale
 70
     0
300
1:30
140
1.0
141
30.0
290
     0
  0
SCALE
  5
51
102
{ACAD_REACTORS
330
47
102
}
330
47
100
AcDbScale
 70
     0
300
1:40
140
1.0
141
40.0
290
     0
  0
SCALE
  5
52
102
{ACAD_REACTORS
330
47
102
}
330
47
100
AcDbScale
 70
     0
300
1:50
140
1.0
141
50.0
290
     0
  0
SCALE
  5
53
102
{ACAD_REACTORS
330
47
102
}
330
47
100
AcDbScale
 70
     0
300
1:100
140
1.0
141
100.0
290
     0
  0
SCALE
  5
54
102
{ACAD_REACTORS
330
47
102
}
330
47
100
AcDbScale
 70
     0
300
2:1
140
2.0
141
1.0
290
     0
  0
SCALE
  5
55
102
{ACAD_REACTORS
330
47
102
}
330
47
100
AcDbScale
 70
     0
300
4:1
140
4.0
141
1.0
290
     0
  0
SCALE
  5
56
102
{ACAD_REACTORS
330
47
102
}
330
47
100
AcDbScale
 70
     0
300
8:1
140
8.0
141
1.0
290
     0
  0
SCALE
  5
57
102
{ACAD_REACTORS
330
47
102
}
330
47
100
AcDbScale
 70
     0
300
10:1
140
10.0
141
1.0
290
     0
  0
SCALE
  5
58
102
{ACAD_REACTORS
330
47
102
}
330
47
100
AcDbScale
 70
     0
300
100:1
140
100.0
141
1.0
290
     0
  0
SCALE
  5
59
102
{ACAD_REACTORS
330
47
102
}
330
47
100
AcDbScale
 70
     0
300
1/128" = 1'-0"
140
0.0078125
141
12.0
290
     0
  0
SCALE
  5
5A
102
{ACAD_REACTORS
330
47
102
}
330
47
100
AcDbScale
 70
     0
300
1/64" = 1'-0"
140
0.015625
141
12.0
290
     0
  0
SCALE
  5
5B
102
{ACAD_REACTORS
330
47
102
}
330
47
100
AcDbScale
 70
     0
300
1/32" = 1'-0"
140
0.03125
141
12.0
290
     0
  0
SCALE
  5
5C
102
{ACAD_REACTORS
330
47
102
}
330
47
100
AcDbScale
 70
     0
300
1/16" = 1'-0"
140
0.0625
141
12.0
290
     0
  0
SCALE
  5
5D
102
{ACAD_REACTORS
330
47
102
}
330
47
100
AcDbScale
 70
     0
300
3/32" = 1'-0"
140
0.09375
141
12.0
290
     0
  0
SCALE
  5
5E
102
{ACAD_REACTORS
330
47
102
}
330
47
100
AcDbScale
 70
     0
300
1/8" = 1'-0"
140
0.125
141
12.0
290
     0
  0
SCALE
  5
5F
102
{ACAD_REACTORS
330
47
102
}
330
47
100
AcDbScale
 70
     0
300
3/16" = 1'-0"
140
0.1875
141
12.0
290
     0
  0
SCALE
  5
60
102
{ACAD_REACTORS
330
47
102
}
330
47
100
AcDbScale
 70
     0
300
1/4" = 1'-0"
140
0.25
141
12.0
290
     0
  0
SCALE
  5
61
102
{ACAD_REACTORS
330
47
102
}
330
47
100
AcDbScale
 70
     0
300
3/8" = 1'-0"
140
0.375
141
12.0
290
     0
  0
SCALE
  5
62
102
{ACAD_REACTORS
330
47
102
}
330
47
100
AcDbScale
 70
     0
300
1/2" = 1'-0"
140
0.5
141
12.0
290
     0
  0
SCALE
  5
63
102
{ACAD_REACTORS
330
47
102
}
330
47
100
AcDbScale
 70
     0
300
3/4" = 1'-0"
140
0.75
141
12.0
290
     0
  0
SCALE
  5
64
102
{ACAD_REACTORS
330
47
102
}
330
47
100
AcDbScale
 70
     0
300
1" = 1'-0"
140
1.0
141
12.0
290
     0
  0
SCALE
  5
65
102
{ACAD_REACTORS
330
47
102
}
330
47
100
AcDbScale
 70
     0
300
1-1/2" = 1'-0"
140
1.5
141
12.0
290
     0
  0
SCALE
  5
66
102
{ACAD_REACTORS
330
47
102
}
330
47
100
AcDbScale
 70
     0
300
3" = 1'-0"
140
3.0
141
12.0
290
     0
  0
SCALE
  5
67
102
{ACAD_REACTORS
330
47
102
}
330
47
100
AcDbScale
 70
     0
300
6" = 1'-0"
140
6.0
141
12.0
290
     0
  0
SCALE
  5
68
102
{ACAD_REACTORS
330
47
102
}
330
47
100
AcDbScale
 70
     0
300
1'-0" = 1'-0"
140
12.0
141
12.0
290
     0
  0
ENDSEC
  0
EOF
